  0
SECTION
  2
HEADER
  9
$ACADVER
  1
AC1015
  9
$ACADMAINTVER
 70
     6
  9
$DWGCODEPAGE
  3
ANSI_1254
  9
$INSBASE
 10
0.0
 20
0.0
 30
0.0
  9
$EXTMIN
 10
0.0
 20
0.0
 30
0.0
  9
$EXTMAX
 10
279.4
 20
215.9
 30
0.0
  9
$LIMMIN
 10
0.0
 20
0.0
  9
$LIMMAX
 10
279.4
 20
215.9
  9
$ORTHOMODE
 70
     0
  9
$REGENMODE
 70
     1
  9
$FILLMODE
 70
     1
  9
$QTEXTMODE
 70
     0
  9
$MIRRTEXT
 70
     1
  9
$LTSCALE
 40
1.0
  9
$ATTMODE
 70
     1
  9
$TEXTSIZE
 40
3.5
  9
$TRACEWID
 40
1.0
  9
$TEXTSTYLE
  7
Standard
  9
$CLAYER
  8
0
  9
$CELTYPE
  6
ByLayer
  9
$CECOLOR
 62
   256
  9
$CELTSCALE
 40
1.0
  9
$DISPSILH
 70
     0
  9
$DIMSCALE
 40
1.0
  9
$DIMASZ
 40
3.5
  9
$DIMEXO
 40
1.0
  9
$DIMDLI
 40
3.75
  9
$DIMRND
 40
0.0
  9
$DIMDLE
 40
0.0
  9
$DIMEXE
 40
1.0
  9
$DIMTP
 40
0.0
  9
$DIMTM
 40
0.0
  9
$DIMTXT
 40
3.5
  9
$DIMCEN
 40
2.5
  9
$DIMTSZ
 40
0.0
  9
$DIMTOL
 70
     0
  9
$DIMLIM
 70
     0
  9
$DIMTIH
 70
     1
  9
$DIMTOH
 70
     1
  9
$DIMSE1
 70
     0
  9
$DIMSE2
 70
     0
  9
$DIMTAD
 70
     1
  9
$DIMZIN
 70
     0
  9
$DIMBLK
  1

  9
$DIMASO
 70
     1
  9
$DIMSHO
 70
     1
  9
$DIMPOST
  1

  9
$DIMAPOST
  1

  9
$DIMALT
 70
     0
  9
$DIMALTD
 70
     3
  9
$DIMALTF
 40
0.0393700787
  9
$DIMLFAC
 40
1.0
  9
$DIMTOFL
 70
     1
  9
$DIMTVP
 40
0.0
  9
$DIMTIX
 70
     0
  9
$DIMSOXD
 70
     0
  9
$DIMSAH
 70
     0
  9
$DIMBLK1
  1

  9
$DIMBLK2
  1

  9
$DIMSTYLE
  2
ISO-25
  9
$DIMCLRD
 70
     0
  9
$DIMCLRE
 70
     0
  9
$DIMCLRT
 70
     0
  9
$DIMTFAC
 40
1.0
  9
$DIMGAP
 40
1.524
  9
$DIMJUST
 70
     0
  9
$DIMSD1
 70
     0
  9
$DIMSD2
 70
     0
  9
$DIMTOLJ
 70
     0
  9
$DIMTZIN
 70
     0
  9
$DIMALTZ
 70
     0
  9
$DIMALTTZ
 70
     0
  9
$DIMUPT
 70
     0
  9
$DIMDEC
 70
     2
  9
$DIMTDEC
 70
     2
  9
$DIMALTU
 70
     2
  9
$DIMALTTD
 70
     3
  9
$DIMTXSTY
  7
Standard
  9
$DIMAUNIT
 70
     0
  9
$DIMADEC
 70
     2
  9
$DIMALTRND
 40
0.0
  9
$DIMAZIN
 70
     0
  9
$DIMDSEP
 70
    44
  9
$DIMATFIT
 70
     3
  9
$DIMFRAC
 70
     0
  9
$DIMLDRBLK
  1

  9
$DIMLUNIT
 70
     2
  9
$DIMLWD
 70
    -2
  9
$DIMLWE
 70
    -2
  9
$DIMTMOVE
 70
     0
  9
$LUNITS
 70
     2
  9
$LUPREC
 70
     2
  9
$SKETCHINC
 40
1.0
  9
$FILLETRAD
 40
10.0
  9
$AUNITS
 70
     0
  9
$AUPREC
 70
     2
  9
$MENU
  1
.
  9
$ELEVATION
 40
0.0
  9
$PELEVATION
 40
0.0
  9
$THICKNESS
 40
0.0
  9
$LIMCHECK
 70
     0
  9
$CHAMFERA
 40
0.0
  9
$CHAMFERB
 40
0.0
  9
$CHAMFERC
 40
0.0
  9
$CHAMFERD
 40
0.0
  9
$SKPOLY
 70
     0
  9
$TDCREATE
 40
2459741.591064456
  9
$TDUCREATE
 40
2459741.466064456
  9
$TDUPDATE
 40
2459741.591067141
  9
$TDUUPDATE
 40
2459741.466067141
  9
$TDINDWG
 40
0.0000000116
  9
$TDUSRTIMER
 40
0.0000000116
  9
$USRTIMER
 70
     1
  9
$ANGBASE
 50
0.0
  9
$ANGDIR
 70
     0
  9
$PDMODE
 70
     0
  9
$PDSIZE
 40
-1.0
  9
$PLINEWID
 40
0.0
  9
$SPLFRAME
 70
     0
  9
$SPLINETYPE
 70
     6
  9
$SPLINESEGS
 70
     8
  9
$HANDSEED
  5
208
  9
$SURFTAB1
 70
     6
  9
$SURFTAB2
 70
     6
  9
$SURFTYPE
 70
     6
  9
$SURFU
 70
     6
  9
$SURFV
 70
     6
  9
$UCSBASE
  2

  9
$UCSNAME
  2

  9
$UCSORG
 10
0.0
 20
0.0
 30
0.0
  9
$UCSXDIR
 10
1.0
 20
0.0
 30
0.0
  9
$UCSYDIR
 10
0.0
 20
1.0
 30
0.0
  9
$UCSORTHOREF
  2

  9
$UCSORTHOVIEW
 70
     0
  9
$UCSORGTOP
 10
0.0
 20
0.0
 30
0.0
  9
$UCSORGBOTTOM
 10
0.0
 20
0.0
 30
0.0
  9
$UCSORGLEFT
 10
0.0
 20
0.0
 30
0.0
  9
$UCSORGRIGHT
 10
0.0
 20
0.0
 30
0.0
  9
$UCSORGFRONT
 10
0.0
 20
0.0
 30
0.0
  9
$UCSORGBACK
 10
0.0
 20
0.0
 30
0.0
  9
$PUCSBASE
  2

  9
$PUCSNAME
  2

  9
$PUCSORG
 10
0.0
 20
0.0
 30
0.0
  9
$PUCSXDIR
 10
1.0
 20
0.0
 30
0.0
  9
$PUCSYDIR
 10
0.0
 20
1.0
 30
0.0
  9
$PUCSORTHOREF
  2

  9
$PUCSORTHOVIEW
 70
     0
  9
$PUCSORGTOP
 10
0.0
 20
0.0
 30
0.0
  9
$PUCSORGBOTTOM
 10
0.0
 20
0.0
 30
0.0
  9
$PUCSORGLEFT
 10
0.0
 20
0.0
 30
0.0
  9
$PUCSORGRIGHT
 10
0.0
 20
0.0
 30
0.0
  9
$PUCSORGFRONT
 10
0.0
 20
0.0
 30
0.0
  9
$PUCSORGBACK
 10
0.0
 20
0.0
 30
0.0
  9
$USERI1
 70
     0
  9
$USERI2
 70
     0
  9
$USERI3
 70
     0
  9
$USERI4
 70
     0
  9
$USERI5
 70
     0
  9
$USERR1
 40
0.0
  9
$USERR2
 40
0.0
  9
$USERR3
 40
0.0
  9
$USERR4
 40
0.0
  9
$USERR5
 40
0.0
  9
$WORLDVIEW
 70
     1
  9
$SHADEDGE
 70
     3
  9
$SHADEDIF
 70
    70
  9
$TILEMODE
 70
     1
  9
$MAXACTVP
 70
    64
  9
$PINSBASE
 10
0.0
 20
0.0
 30
0.0
  9
$PLIMCHECK
 70
     0
  9
$PEXTMIN
 10
1.0000000000E+20
 20
1.0000000000E+20
 30
1.0000000000E+20
  9
$PEXTMAX
 10
-1.0000000000E+20
 20
-1.0000000000E+20
 30
-1.0000000000E+20
  9
$PLIMMIN
 10
0.0
 20
0.0
  9
$PLIMMAX
 10
420.0
 20
297.0
  9
$UNITMODE
 70
     0
  9
$VISRETAIN
 70
     1
  9
$PLINEGEN
 70
     0
  9
$PSLTSCALE
 70
     1
  9
$TREEDEPTH
 70
  3020
  9
$CMLSTYLE
  2
Standard
  9
$CMLJUST
 70
     0
  9
$CMLSCALE
 40
20.0
  9
$PROXYGRAPHICS
 70
     1
  9
$MEASUREMENT
 70
     1
  9
$CELWEIGHT
370
    -1
  9
$ENDCAPS
280
     0
  9
$JOINSTYLE
280
     0
  9
$LWDISPLAY
290
     1
  9
$INSUNITS
 70
     4
  9
$HYPERLINKBASE
  1

  9
$STYLESHEET
  1

  9
$XEDIT
290
     1
  9
$CEPSNTYPE
380
     0
  9
$PSTYLEMODE
290
     1
  9
$FINGERPRINTGUID
  2
{1cd40b45-6e1e-4713-9e68-bc81817770e9}
  9
$VERSIONGUID
  2
{FAEB1C32-E019-11D5-929B-00C0DF256EC4}
  9
$EXTNAMES
290
     1
  9
$PSVPSCALE
 40
0.0
  9
$OLESTARTUP
290
     0
  0
ENDSEC
  0
SECTION
  2
CLASSES
  0
CLASS
  1
ACDBDICTIONARYWDFLT
  2
AcDbDictionaryWithDefault
  3
ObjectDBX Classes
 90
        0
280
     0
281
     0
  0
CLASS
  1
VISUALSTYLE
  2
AcDbVisualStyle
  3
ObjectDBX Classes
 90
     4095
280
     0
281
     0
  0
CLASS
  1
MATERIAL
  2
AcDbMaterial
  3
ObjectDBX Classes
 90
     1153
280
     0
281
     0
  0
CLASS
  1
SCALE
  2
AcDbScale
  3
ObjectDBX Classes
 90
     1153
280
     0
281
     0
  0
CLASS
  1
TABLESTYLE
  2
AcDbTableStyle
  3
ObjectDBX Classes
 90
     4095
280
     0
281
     0
  0
CLASS
  1
MLEADERSTYLE
  2
AcDbMLeaderStyle
  3
ACDB_MLEADERSTYLE_CLASS
 90
     4095
280
     0
281
     0
  0
CLASS
  1
SUN
  2
AcDbSun
  3
SCENEOE
 90
     1153
280
     0
281
     0
  0
CLASS
  1
ACDBPLACEHOLDER
  2
AcDbPlaceHolder
  3
ObjectDBX Classes
 90
        0
280
     0
281
     0
  0
CLASS
  1
LAYOUT
  2
AcDbLayout
  3
ObjectDBX Classes
 90
        0
280
     0
281
     0
  0
ENDSEC
  0
SECTION
  2
TABLES
  0
TABLE
  2
VPORT
  5
8
330
0
100
AcDbSymbolTable
 70
     1
  0
VPORT
  5
29
330
8
100
AcDbSymbolTableRecord
100
AcDbViewportTableRecord
  2
*Active
 70
     0
 10
0.0
 20
0.0
 11
1.0
 21
1.0
 12
139.7
 22
107.95
 13
0.0
 23
0.0
 14
10.0
 24
10.0
 15
10.0
 25
10.0
 16
0.0
 26
0.0
 36
1.0
 17
0.0
 27
0.0
 37
0.0
 40
215.9
 41
1.2941176471
 42
50.0
 43
0.0
 44
0.0
 50
0.0
 51
0.0
 71
     0
 72
  2000
 73
     1
 74
     3
 75
     0
 76
     0
 77
     0
 78
     0
281
     0
 65
     1
110
0.0
120
0.0
130
0.0
111
1.0
121
0.0
131
0.0
112
0.0
122
1.0
132
0.0
 79
     0
146
0.0
  0
ENDTAB
  0
TABLE
  2
LTYPE
  5
5
330
0
100
AcDbSymbolTable
 70
     6
  0
LTYPE
  5
14
330
5
100
AcDbSymbolTableRecord
100
AcDbLinetypeTableRecord
  2
ByBlock
 70
     0
  3

 72
    65
 73
     0
 40
0.0
  0
LTYPE
  5
15
330
5
100
AcDbSymbolTableRecord
100
AcDbLinetypeTableRecord
  2
ByLayer
 70
     0
  3

 72
    65
 73
     0
 40
0.0
  0
LTYPE
  5
16
330
5
100
AcDbSymbolTableRecord
100
AcDbLinetypeTableRecord
  2
Continuous
 70
     0
  3
Solid line
 72
    65
 73
     0
 40
0.0
  0
LTYPE
  5
6E
330
5
100
AcDbSymbolTableRecord
100
AcDbLinetypeTableRecord
  2
HIDDEN
 70
     0
  3
Hidden __ __ __ __ __ __ __ __ __ __ __ __ __ __
 72
    65
 73
     2
 40
1.905
 49
1.27
 74
     0
 49
-0.635
 74
     0
  0
LTYPE
  5
6F
330
5
100
AcDbSymbolTableRecord
100
AcDbLinetypeTableRecord
  2
PHANTOM
 70
     0
  3
Phantom ______  __  __  ______  __  __  ______
 72
    65
 73
     6
 40
12.7
 49
6.35
 74
     0
 49
-1.27
 74
     0
 49
1.27
 74
     0
 49
-1.27
 74
     0
 49
1.27
 74
     0
 49
-1.27
 74
     0
  0
LTYPE
  5
70
330
5
100
AcDbSymbolTableRecord
100
AcDbLinetypeTableRecord
  2
CENTER
 70
     0
  3
Center ____ _ ____ _ ____ _ ____ _ ____ _ ____
 72
    65
 73
     4
 40
10.16
 49
6.35
 74
     0
 49
-1.27
 74
     0
 49
1.27
 74
     0
 49
-1.27
 74
     0
  0
LTYPE
  5
71
330
5
100
AcDbSymbolTableRecord
100
AcDbLinetypeTableRecord
  2
CENTERX2
 70
     0
  3
Center (2x) ________  __  ________  __  _____
 72
    65
 73
     4
 40
20.32
 49
12.7
 74
     0
 49
-2.54
 74
     0
 49
2.54
 74
     0
 49
-2.54
 74
     0
  0
LTYPE
  5
72
330
5
100
AcDbSymbolTableRecord
100
AcDbLinetypeTableRecord
  2
DOT2
 70
     0
  3
Dot (.5x) ........................................
 72
    65
 73
     2
 40
0.635
 49
0.0
 74
     0
 49
-0.635
 74
     0
  0
ENDTAB
  0
TABLE
  2
LAYER
  5
2
330
0
100
AcDbSymbolTable
 70
    17
  0
LAYER
  5
10
330
2
100
AcDbSymbolTableRecord
100
AcDbLayerTableRecord
  2
0
 70
     0
 62
     7
  6
Continuous
370
    -3
390
F
  0
LAYER
  5
73
330
2
100
AcDbSymbolTableRecord
100
AcDbLayerTableRecord
  2
FORMAT
 70
     0
 62
     7
  6
Continuous
370
    -3
390
F
  0
LAYER
  5
74
330
2
100
AcDbSymbolTableRecord
100
AcDbLayerTableRecord
  2
YARDIMCI_GEOMETRI
 70
     0
 62
    -6
  6
Continuous
290
     0
370
    -3
390
F
  0
LAYER
  5
75
330
2
100
AcDbSymbolTableRecord
100
AcDbLayerTableRecord
  2
SAYFA_CERCEVESI
 70
     0
 62
     7
  6
Continuous
370
    25
390
F
  0
LAYER
  5
76
330
2
100
AcDbSymbolTableRecord
100
AcDbLayerTableRecord
  2
ANTET
 70
     0
 62
     7
  6
Continuous
370
    -3
390
F
  0
LAYER
  5
77
330
2
100
AcDbSymbolTableRecord
100
AcDbLayerTableRecord
  2
OLCU
 70
     0
 62
   150
  6
Continuous
370
    -3
390
F
  0
LAYER
  5
78
330
2
100
AcDbSymbolTableRecord
100
AcDbLayerTableRecord
  2
METIN
 70
     0
 62
    96
  6
Continuous
370
    -3
390
F
  0
LAYER
  5
79
330
2
100
AcDbSymbolTableRecord
100
AcDbLayerTableRecord
  2
BALON
 70
     0
 62
     5
  6
Continuous
370
    -3
390
F
  0
LAYER
  5
7A
330
2
100
AcDbSymbolTableRecord
100
AcDbLayerTableRecord
  2
VURGU
 70
     0
 62
     7
  6
Continuous
370
    -3
390
F
  0
LAYER
  5
7B
330
2
100
AcDbSymbolTableRecord
100
AcDbLayerTableRecord
  2
SILIK
 70
     0
 62
     7
  6
Continuous
370
    -3
390
F
  0
LAYER
  5
7C
330
2
100
AcDbSymbolTableRecord
100
AcDbLayerTableRecord
  2
MODEL
 70
     0
 62
     7
  6
Continuous
370
    -3
390
F
  0
LAYER
  5
7D
330
2
100
AcDbSymbolTableRecord
100
AcDbLayerTableRecord
  2
DETAYLANDıRMA
 70
     0
 62
   190
  6
Continuous
370
    -3
390
F
  0
LAYER
  5
7E
330
2
100
AcDbSymbolTableRecord
100
AcDbLayerTableRecord
  2
TOLERANS
 70
     0
 62
   230
  6
Continuous
370
    -3
390
F
  0
LAYER
  5
7F
330
2
100
AcDbSymbolTableRecord
100
AcDbLayerTableRecord
  2
MERKEZ_CIZGILERI
 70
     0
 62
    30
  6
Continuous
370
    -3
390
F
  0
LAYER
  5
80
330
2
100
AcDbSymbolTableRecord
100
AcDbLayerTableRecord
  2
KESIT-DETAY_CIZGILERI
 70
     0
 62
     7
  6
Continuous
370
    -3
390
F
  0
LAYER
  5
81
330
2
100
AcDbSymbolTableRecord
100
AcDbLayerTableRecord
  2
\U+041E\U+0421\U+0415\U+0412\U+042B\U+0415
 70
     0
 62
     7
  6
Continuous
370
    -3
390
F
  0
LAYER
  5
82
330
2
100
AcDbSymbolTableRecord
100
AcDbLayerTableRecord
  2
\U+0412\U+041E\U+0414\U+042F\U+041D\U+042B\U+0415_\U+0417\U+041D\U+0410\U+041A\U+0418
 70
     0
 62
    11
  6
Continuous
370
    -3
390
F
  0
ENDTAB
  0
TABLE
  2
STYLE
  5
3
330
0
100
AcDbSymbolTable
 70
     1
  0
STYLE
  5
11
330
3
100
AcDbSymbolTableRecord
100
AcDbTextStyleTableRecord
  2
Standard
 70
     0
 40
0.0
 41
1.0
 50
0.0
 71
     0
 42
3.5
  3
txt
  4

  0
ENDTAB
  0
TABLE
  2
VIEW
  5
6
330
0
100
AcDbSymbolTable
 70
     0
  0
ENDTAB
  0
TABLE
  2
UCS
  5
7
330
0
100
AcDbSymbolTable
 70
     0
  0
ENDTAB
  0
TABLE
  2
APPID
  5
9
330
0
100
AcDbSymbolTable
 70
     1
  0
APPID
  5
12
330
9
100
AcDbSymbolTableRecord
100
AcDbRegAppTableRecord
  2
ACAD
 70
     0
  0
ENDTAB
  0
TABLE
  2
DIMSTYLE
  5
A
330
0
100
AcDbSymbolTable
 70
     1
100
AcDbDimStyleTable
  0
DIMSTYLE
105
27
330
A
100
AcDbSymbolTableRecord
100
AcDbDimStyleTableRecord
  2
ISO-25
 70
     0
 41
2.5
 42
0.625
 43
3.75
 44
1.25
 73
     0
 74
     0
 77
     1
 78
     8
140
2.5
141
2.5
143
0.0393700787
147
0.625
171
     3
172
     1
178
     0
271
     2
272
     2
274
     3
278
    44
283
     0
284
     8
340
11
  0
ENDTAB
  0
TABLE
  2
BLOCK_RECORD
  5
1
330
0
100
AcDbSymbolTable
 70
    18
  0
BLOCK_RECORD
  5
1F
330
1
100
AcDbSymbolTableRecord
100
AcDbBlockTableRecord
  2
*Model_Space
340
22
  0
BLOCK_RECORD
  5
1B
330
1
100
AcDbSymbolTableRecord
100
AcDbBlockTableRecord
  2
*Paper_Space
340
1E
  0
BLOCK_RECORD
  5
23
330
1
100
AcDbSymbolTableRecord
100
AcDbBlockTableRecord
  2
*Paper_Space0
340
26
  0
BLOCK_RECORD
  5
A7
330
1
100
AcDbSymbolTableRecord
100
AcDbBlockTableRecord
  2
SW_CENTERMARKSYMBOL_0
340
0
102
{BLKREFS
331
B2
102
}
  0
BLOCK_RECORD
  5
B3
330
1
100
AcDbSymbolTableRecord
100
AcDbBlockTableRecord
  2
SW_CENTERMARKSYMBOL_1
340
0
102
{BLKREFS
331
BE
102
}
  0
BLOCK_RECORD
  5
BF
330
1
100
AcDbSymbolTableRecord
100
AcDbBlockTableRecord
  2
SW_CENTERMARKSYMBOL_2
340
0
102
{BLKREFS
331
CA
102
}
  0
BLOCK_RECORD
  5
CB
330
1
100
AcDbSymbolTableRecord
100
AcDbBlockTableRecord
  2
SW_CENTERMARKSYMBOL_3
340
0
102
{BLKREFS
331
D6
102
}
  0
BLOCK_RECORD
  5
D7
330
1
100
AcDbSymbolTableRecord
100
AcDbBlockTableRecord
  2
SW_CENTERMARKSYMBOL_4
340
0
102
{BLKREFS
331
E2
102
}
  0
BLOCK_RECORD
  5
E3
330
1
100
AcDbSymbolTableRecord
100
AcDbBlockTableRecord
  2
SW_CENTERMARKSYMBOL_5
340
0
102
{BLKREFS
331
EE
102
}
  0
BLOCK_RECORD
  5
EF
330
1
100
AcDbSymbolTableRecord
100
AcDbBlockTableRecord
  2
SW_CENTERMARKSYMBOL_6
340
0
102
{BLKREFS
331
FA
102
}
  0
BLOCK_RECORD
  5
FB
330
1
100
AcDbSymbolTableRecord
100
AcDbBlockTableRecord
  2
SW_CENTERMARKSYMBOL_7
340
0
102
{BLKREFS
331
106
102
}
  0
BLOCK_RECORD
  5
107
330
1
100
AcDbSymbolTableRecord
100
AcDbBlockTableRecord
  2
SW_CENTERMARKSYMBOL_8
340
0
102
{BLKREFS
331
112
102
}
  0
BLOCK_RECORD
  5
113
330
1
100
AcDbSymbolTableRecord
100
AcDbBlockTableRecord
  2
SW_CENTERMARKSYMBOL_9
340
0
102
{BLKREFS
331
11E
102
}
  0
BLOCK_RECORD
  5
11F
330
1
100
AcDbSymbolTableRecord
100
AcDbBlockTableRecord
  2
SW_CENTERMARKSYMBOL_10
340
0
102
{BLKREFS
331
12A
102
}
  0
BLOCK_RECORD
  5
12B
330
1
100
AcDbSymbolTableRecord
100
AcDbBlockTableRecord
  2
SW_CENTERMARKSYMBOL_11
340
0
102
{BLKREFS
331
136
102
}
  0
BLOCK_RECORD
  5
137
330
1
100
AcDbSymbolTableRecord
100
AcDbBlockTableRecord
  2
SW_CENTERMARKSYMBOL_12
340
0
102
{BLKREFS
331
142
102
}
  0
BLOCK_RECORD
  5
143
330
1
100
AcDbSymbolTableRecord
100
AcDbBlockTableRecord
  2
SW_CENTERMARKSYMBOL_13
340
0
102
{BLKREFS
331
14E
102
}
  0
BLOCK_RECORD
  5
14F
330
1
100
AcDbSymbolTableRecord
100
AcDbBlockTableRecord
  2
SW_CENTERMARKSYMBOL_14
340
0
102
{BLKREFS
331
15A
102
}
  0
BLOCK_RECORD
  5
15B
330
1
100
AcDbSymbolTableRecord
100
AcDbBlockTableRecord
  2
SW_CENTERMARKSYMBOL_15
340
0
102
{BLKREFS
331
166
102
}
  0
BLOCK_RECORD
  5
167
330
1
100
AcDbSymbolTableRecord
100
AcDbBlockTableRecord
  2
SW_CENTERMARKSYMBOL_16
340
0
102
{BLKREFS
331
172
102
}
  0
ENDTAB
  0
ENDSEC
  0
SECTION
  2
BLOCKS
  0
BLOCK
  5
20
330
1F
100
AcDbEntity
  8
0
100
AcDbBlockBegin
  2
*Model_Space
 70
     0
 10
0.0
 20
0.0
 30
0.0
  3
*Model_Space
  1

  0
ENDBLK
  5
21
330
1F
100
AcDbEntity
  8
0
100
AcDbBlockEnd
  0
BLOCK
  5
1C
330
1B
100
AcDbEntity
 67
     1
  8
0
100
AcDbBlockBegin
  2
*Paper_Space
 70
     0
 10
0.0
 20
0.0
 30
0.0
  3
*Paper_Space
  1

  0
ENDBLK
  5
1D
330
1B
100
AcDbEntity
 67
     1
  8
0
100
AcDbBlockEnd
  0
BLOCK
  5
24
330
23
100
AcDbEntity
  8
0
100
AcDbBlockBegin
  2
*Paper_Space0
 70
     0
 10
0.0
 20
0.0
 30
0.0
  3
*Paper_Space0
  1

  0
ENDBLK
  5
25
330
23
100
AcDbEntity
  8
0
100
AcDbBlockEnd
  0
BLOCK
  5
A8
330
A7
100
AcDbEntity
  8
0
100
AcDbBlockBegin
  2
SW_CENTERMARKSYMBOL_0
 70
     0
 10
0.0
 20
0.0
 30
0.0
  3
SW_CENTERMARKSYMBOL_0
  1

  0
LINE
  5
AA
330
A7
100
AcDbEntity
  8
FORMAT
 62
     0
100
AcDbLine
 10
0.0
 20
0.0
 30
0.0
 11
0.0
 21
2.5
 31
0.0
  0
LINE
  5
AB
330
A7
100
AcDbEntity
  8
FORMAT
 62
     0
100
AcDbLine
 10
0.0
 20
0.0
 30
0.0
 11
-2.5
 21
0.0
 31
0.0
  0
LINE
  5
AC
330
A7
100
AcDbEntity
  8
FORMAT
 62
     0
100
AcDbLine
 10
0.0
 20
0.0
 30
0.0
 11
0.0
 21
-2.5
 31
0.0
  0
LINE
  5
AD
330
A7
100
AcDbEntity
  8
FORMAT
 62
     0
100
AcDbLine
 10
0.0
 20
0.0
 30
0.0
 11
2.5
 21
0.0
 31
0.0
  0
LINE
  5
AE
330
A7
100
AcDbEntity
  8
FORMAT
 62
     0
100
AcDbLine
 10
0.0
 20
5.0
 30
0.0
 11
0.0
 21
288.0
 31
0.0
  0
LINE
  5
AF
330
A7
100
AcDbEntity
  8
FORMAT
 62
     0
100
AcDbLine
 10
-5.0
 20
0.0
 30
0.0
 11
-288.0
 21
0.0
 31
0.0
  0
LINE
  5
B0
330
A7
100
AcDbEntity
  8
FORMAT
 62
     0
100
AcDbLine
 10
0.0
 20
-5.0
 30
0.0
 11
0.0
 21
-288.0
 31
0.0
  0
LINE
  5
B1
330
A7
100
AcDbEntity
  8
FORMAT
 62
     0
100
AcDbLine
 10
5.0
 20
0.0
 30
0.0
 11
288.0
 21
0.0
 31
0.0
  0
ENDBLK
  5
A9
330
A7
100
AcDbEntity
  8
0
100
AcDbBlockEnd
  0
BLOCK
  5
B4
330
B3
100
AcDbEntity
  8
0
100
AcDbBlockBegin
  2
SW_CENTERMARKSYMBOL_1
 70
     0
 10
0.0
 20
0.0
 30
0.0
  3
SW_CENTERMARKSYMBOL_1
  1

  0
LINE
  5
B6
330
B3
100
AcDbEntity
  8
FORMAT
 62
     0
100
AcDbLine
 10
0.0
 20
0.0
 30
0.0
 11
0.0
 21
2.5
 31
0.0
  0
LINE
  5
B7
330
B3
100
AcDbEntity
  8
FORMAT
 62
     0
100
AcDbLine
 10
0.0
 20
0.0
 30
0.0
 11
-2.5
 21
0.0
 31
0.0
  0
LINE
  5
B8
330
B3
100
AcDbEntity
  8
FORMAT
 62
     0
100
AcDbLine
 10
0.0
 20
0.0
 30
0.0
 11
0.0
 21
-2.5
 31
0.0
  0
LINE
  5
B9
330
B3
100
AcDbEntity
  8
FORMAT
 62
     0
100
AcDbLine
 10
0.0
 20
0.0
 30
0.0
 11
2.5
 21
0.0
 31
0.0
  0
LINE
  5
BA
330
B3
100
AcDbEntity
  8
FORMAT
 62
     0
100
AcDbLine
 10
0.0
 20
5.0
 30
0.0
 11
0.0
 21
15.5
 31
0.0
  0
LINE
  5
BB
330
B3
100
AcDbEntity
  8
FORMAT
 62
     0
100
AcDbLine
 10
-5.0
 20
0.0
 30
0.0
 11
-15.5
 21
0.0
 31
0.0
  0
LINE
  5
BC
330
B3
100
AcDbEntity
  8
FORMAT
 62
     0
100
AcDbLine
 10
0.0
 20
-5.0
 30
0.0
 11
0.0
 21
-15.5
 31
0.0
  0
LINE
  5
BD
330
B3
100
AcDbEntity
  8
FORMAT
 62
     0
100
AcDbLine
 10
5.0
 20
0.0
 30
0.0
 11
15.5
 21
0.0
 31
0.0
  0
ENDBLK
  5
B5
330
B3
100
AcDbEntity
  8
0
100
AcDbBlockEnd
  0
BLOCK
  5
C0
330
BF
100
AcDbEntity
  8
0
100
AcDbBlockBegin
  2
SW_CENTERMARKSYMBOL_2
 70
     0
 10
0.0
 20
0.0
 30
0.0
  3
SW_CENTERMARKSYMBOL_2
  1

  0
LINE
  5
C2
330
BF
100
AcDbEntity
  8
FORMAT
 62
     0
100
AcDbLine
 10
0.0
 20
0.0
 30
0.0
 11
0.0
 21
2.5
 31
0.0
  0
LINE
  5
C3
330
BF
100
AcDbEntity
  8
FORMAT
 62
     0
100
AcDbLine
 10
0.0
 20
0.0
 30
0.0
 11
-2.5
 21
0.0
 31
0.0
  0
LINE
  5
C4
330
BF
100
AcDbEntity
  8
FORMAT
 62
     0
100
AcDbLine
 10
0.0
 20
0.0
 30
0.0
 11
0.0
 21
-2.5
 31
0.0
  0
LINE
  5
C5
330
BF
100
AcDbEntity
  8
FORMAT
 62
     0
100
AcDbLine
 10
0.0
 20
0.0
 30
0.0
 11
2.5
 21
0.0
 31
0.0
  0
LINE
  5
C6
330
BF
100
AcDbEntity
  8
FORMAT
 62
     0
100
AcDbLine
 10
0.0
 20
5.0
 30
0.0
 11
0.0
 21
15.5
 31
0.0
  0
LINE
  5
C7
330
BF
100
AcDbEntity
  8
FORMAT
 62
     0
100
AcDbLine
 10
-5.0
 20
0.0
 30
0.0
 11
-15.5
 21
0.0
 31
0.0
  0
LINE
  5
C8
330
BF
100
AcDbEntity
  8
FORMAT
 62
     0
100
AcDbLine
 10
0.0
 20
-5.0
 30
0.0
 11
0.0
 21
-15.5
 31
0.0
  0
LINE
  5
C9
330
BF
100
AcDbEntity
  8
FORMAT
 62
     0
100
AcDbLine
 10
5.0
 20
0.0
 30
0.0
 11
15.5
 21
0.0
 31
0.0
  0
ENDBLK
  5
C1
330
BF
100
AcDbEntity
  8
0
100
AcDbBlockEnd
  0
BLOCK
  5
CC
330
CB
100
AcDbEntity
  8
0
100
AcDbBlockBegin
  2
SW_CENTERMARKSYMBOL_3
 70
     0
 10
0.0
 20
0.0
 30
0.0
  3
SW_CENTERMARKSYMBOL_3
  1

  0
LINE
  5
CE
330
CB
100
AcDbEntity
  8
FORMAT
 62
     0
100
AcDbLine
 10
0.0
 20
0.0
 30
0.0
 11
0.0
 21
2.5
 31
0.0
  0
LINE
  5
CF
330
CB
100
AcDbEntity
  8
FORMAT
 62
     0
100
AcDbLine
 10
0.0
 20
0.0
 30
0.0
 11
-2.5
 21
0.0
 31
0.0
  0
LINE
  5
D0
330
CB
100
AcDbEntity
  8
FORMAT
 62
     0
100
AcDbLine
 10
0.0
 20
0.0
 30
0.0
 11
0.0
 21
-2.5
 31
0.0
  0
LINE
  5
D1
330
CB
100
AcDbEntity
  8
FORMAT
 62
     0
100
AcDbLine
 10
0.0
 20
0.0
 30
0.0
 11
2.5
 21
0.0
 31
0.0
  0
LINE
  5
D2
330
CB
100
AcDbEntity
  8
FORMAT
 62
     0
100
AcDbLine
 10
0.0
 20
5.0
 30
0.0
 11
0.0
 21
15.5
 31
0.0
  0
LINE
  5
D3
330
CB
100
AcDbEntity
  8
FORMAT
 62
     0
100
AcDbLine
 10
-5.0
 20
0.0
 30
0.0
 11
-15.5
 21
0.0
 31
0.0
  0
LINE
  5
D4
330
CB
100
AcDbEntity
  8
FORMAT
 62
     0
100
AcDbLine
 10
0.0
 20
-5.0
 30
0.0
 11
0.0
 21
-15.5
 31
0.0
  0
LINE
  5
D5
330
CB
100
AcDbEntity
  8
FORMAT
 62
     0
100
AcDbLine
 10
5.0
 20
0.0
 30
0.0
 11
15.5
 21
0.0
 31
0.0
  0
ENDBLK
  5
CD
330
CB
100
AcDbEntity
  8
0
100
AcDbBlockEnd
  0
BLOCK
  5
D8
330
D7
100
AcDbEntity
  8
0
100
AcDbBlockBegin
  2
SW_CENTERMARKSYMBOL_4
 70
     0
 10
0.0
 20
0.0
 30
0.0
  3
SW_CENTERMARKSYMBOL_4
  1

  0
LINE
  5
DA
330
D7
100
AcDbEntity
  8
FORMAT
 62
     0
100
AcDbLine
 10
0.0
 20
0.0
 30
0.0
 11
0.0
 21
2.5
 31
0.0
  0
LINE
  5
DB
330
D7
100
AcDbEntity
  8
FORMAT
 62
     0
100
AcDbLine
 10
0.0
 20
0.0
 30
0.0
 11
-2.5
 21
0.0
 31
0.0
  0
LINE
  5
DC
330
D7
100
AcDbEntity
  8
FORMAT
 62
     0
100
AcDbLine
 10
0.0
 20
0.0
 30
0.0
 11
0.0
 21
-2.5
 31
0.0
  0
LINE
  5
DD
330
D7
100
AcDbEntity
  8
FORMAT
 62
     0
100
AcDbLine
 10
0.0
 20
0.0
 30
0.0
 11
2.5
 21
0.0
 31
0.0
  0
LINE
  5
DE
330
D7
100
AcDbEntity
  8
FORMAT
 62
     0
100
AcDbLine
 10
0.0
 20
5.0
 30
0.0
 11
0.0
 21
15.5
 31
0.0
  0
LINE
  5
DF
330
D7
100
AcDbEntity
  8
FORMAT
 62
     0
100
AcDbLine
 10
-5.0
 20
0.0
 30
0.0
 11
-15.5
 21
0.0
 31
0.0
  0
LINE
  5
E0
330
D7
100
AcDbEntity
  8
FORMAT
 62
     0
100
AcDbLine
 10
0.0
 20
-5.0
 30
0.0
 11
0.0
 21
-15.5
 31
0.0
  0
LINE
  5
E1
330
D7
100
AcDbEntity
  8
FORMAT
 62
     0
100
AcDbLine
 10
5.0
 20
0.0
 30
0.0
 11
15.5
 21
0.0
 31
0.0
  0
ENDBLK
  5
D9
330
D7
100
AcDbEntity
  8
0
100
AcDbBlockEnd
  0
BLOCK
  5
E4
330
E3
100
AcDbEntity
  8
0
100
AcDbBlockBegin
  2
SW_CENTERMARKSYMBOL_5
 70
     0
 10
0.0
 20
0.0
 30
0.0
  3
SW_CENTERMARKSYMBOL_5
  1

  0
LINE
  5
E6
330
E3
100
AcDbEntity
  8
FORMAT
 62
     0
100
AcDbLine
 10
0.0
 20
0.0
 30
0.0
 11
0.0
 21
2.5
 31
0.0
  0
LINE
  5
E7
330
E3
100
AcDbEntity
  8
FORMAT
 62
     0
100
AcDbLine
 10
0.0
 20
0.0
 30
0.0
 11
-2.5
 21
0.0
 31
0.0
  0
LINE
  5
E8
330
E3
100
AcDbEntity
  8
FORMAT
 62
     0
100
AcDbLine
 10
0.0
 20
0.0
 30
0.0
 11
0.0
 21
-2.5
 31
0.0
  0
LINE
  5
E9
330
E3
100
AcDbEntity
  8
FORMAT
 62
     0
100
AcDbLine
 10
0.0
 20
0.0
 30
0.0
 11
2.5
 21
0.0
 31
0.0
  0
LINE
  5
EA
330
E3
100
AcDbEntity
  8
FORMAT
 62
     0
100
AcDbLine
 10
0.0
 20
5.0
 30
0.0
 11
0.0
 21
16.5
 31
0.0
  0
LINE
  5
EB
330
E3
100
AcDbEntity
  8
FORMAT
 62
     0
100
AcDbLine
 10
-5.0
 20
0.0
 30
0.0
 11
-16.5
 21
0.0
 31
0.0
  0
LINE
  5
EC
330
E3
100
AcDbEntity
  8
FORMAT
 62
     0
100
AcDbLine
 10
0.0
 20
-5.0
 30
0.0
 11
0.0
 21
-16.5
 31
0.0
  0
LINE
  5
ED
330
E3
100
AcDbEntity
  8
FORMAT
 62
     0
100
AcDbLine
 10
5.0
 20
0.0
 30
0.0
 11
16.5
 21
0.0
 31
0.0
  0
ENDBLK
  5
E5
330
E3
100
AcDbEntity
  8
0
100
AcDbBlockEnd
  0
BLOCK
  5
F0
330
EF
100
AcDbEntity
  8
0
100
AcDbBlockBegin
  2
SW_CENTERMARKSYMBOL_6
 70
     0
 10
0.0
 20
0.0
 30
0.0
  3
SW_CENTERMARKSYMBOL_6
  1

  0
LINE
  5
F2
330
EF
100
AcDbEntity
  8
FORMAT
 62
     0
100
AcDbLine
 10
0.0
 20
0.0
 30
0.0
 11
0.0
 21
2.5
 31
0.0
  0
LINE
  5
F3
330
EF
100
AcDbEntity
  8
FORMAT
 62
     0
100
AcDbLine
 10
0.0
 20
0.0
 30
0.0
 11
-2.5
 21
0.0
 31
0.0
  0
LINE
  5
F4
330
EF
100
AcDbEntity
  8
FORMAT
 62
     0
100
AcDbLine
 10
0.0
 20
0.0
 30
0.0
 11
0.0
 21
-2.5
 31
0.0
  0
LINE
  5
F5
330
EF
100
AcDbEntity
  8
FORMAT
 62
     0
100
AcDbLine
 10
0.0
 20
0.0
 30
0.0
 11
2.5
 21
0.0
 31
0.0
  0
LINE
  5
F6
330
EF
100
AcDbEntity
  8
FORMAT
 62
     0
100
AcDbLine
 10
0.0
 20
5.0
 30
0.0
 11
0.0
 21
16.5
 31
0.0
  0
LINE
  5
F7
330
EF
100
AcDbEntity
  8
FORMAT
 62
     0
100
AcDbLine
 10
-5.0
 20
0.0
 30
0.0
 11
-16.5
 21
0.0
 31
0.0
  0
LINE
  5
F8
330
EF
100
AcDbEntity
  8
FORMAT
 62
     0
100
AcDbLine
 10
0.0
 20
-5.0
 30
0.0
 11
0.0
 21
-16.5
 31
0.0
  0
LINE
  5
F9
330
EF
100
AcDbEntity
  8
FORMAT
 62
     0
100
AcDbLine
 10
5.0
 20
0.0
 30
0.0
 11
16.5
 21
0.0
 31
0.0
  0
ENDBLK
  5
F1
330
EF
100
AcDbEntity
  8
0
100
AcDbBlockEnd
  0
BLOCK
  5
FC
330
FB
100
AcDbEntity
  8
0
100
AcDbBlockBegin
  2
SW_CENTERMARKSYMBOL_7
 70
     0
 10
0.0
 20
0.0
 30
0.0
  3
SW_CENTERMARKSYMBOL_7
  1

  0
LINE
  5
FE
330
FB
100
AcDbEntity
  8
FORMAT
 62
     0
100
AcDbLine
 10
0.0
 20
0.0
 30
0.0
 11
0.0
 21
2.5
 31
0.0
  0
LINE
  5
FF
330
FB
100
AcDbEntity
  8
FORMAT
 62
     0
100
AcDbLine
 10
0.0
 20
0.0
 30
0.0
 11
-2.5
 21
0.0
 31
0.0
  0
LINE
  5
100
330
FB
100
AcDbEntity
  8
FORMAT
 62
     0
100
AcDbLine
 10
0.0
 20
0.0
 30
0.0
 11
0.0
 21
-2.5
 31
0.0
  0
LINE
  5
101
330
FB
100
AcDbEntity
  8
FORMAT
 62
     0
100
AcDbLine
 10
0.0
 20
0.0
 30
0.0
 11
2.5
 21
0.0
 31
0.0
  0
LINE
  5
102
330
FB
100
AcDbEntity
  8
FORMAT
 62
     0
100
AcDbLine
 10
0.0
 20
5.0
 30
0.0
 11
0.0
 21
16.5
 31
0.0
  0
LINE
  5
103
330
FB
100
AcDbEntity
  8
FORMAT
 62
     0
100
AcDbLine
 10
-5.0
 20
0.0
 30
0.0
 11
-16.5
 21
0.0
 31
0.0
  0
LINE
  5
104
330
FB
100
AcDbEntity
  8
FORMAT
 62
     0
100
AcDbLine
 10
0.0
 20
-5.0
 30
0.0
 11
0.0
 21
-16.5
 31
0.0
  0
LINE
  5
105
330
FB
100
AcDbEntity
  8
FORMAT
 62
     0
100
AcDbLine
 10
5.0
 20
0.0
 30
0.0
 11
16.5
 21
0.0
 31
0.0
  0
ENDBLK
  5
FD
330
FB
100
AcDbEntity
  8
0
100
AcDbBlockEnd
  0
BLOCK
  5
108
330
107
100
AcDbEntity
  8
0
100
AcDbBlockBegin
  2
SW_CENTERMARKSYMBOL_8
 70
     0
 10
0.0
 20
0.0
 30
0.0
  3
SW_CENTERMARKSYMBOL_8
  1

  0
LINE
  5
10A
330
107
100
AcDbEntity
  8
FORMAT
 62
     0
100
AcDbLine
 10
0.0
 20
0.0
 30
0.0
 11
0.0
 21
2.5
 31
0.0
  0
LINE
  5
10B
330
107
100
AcDbEntity
  8
FORMAT
 62
     0
100
AcDbLine
 10
0.0
 20
0.0
 30
0.0
 11
-2.5
 21
0.0
 31
0.0
  0
LINE
  5
10C
330
107
100
AcDbEntity
  8
FORMAT
 62
     0
100
AcDbLine
 10
0.0
 20
0.0
 30
0.0
 11
0.0
 21
-2.5
 31
0.0
  0
LINE
  5
10D
330
107
100
AcDbEntity
  8
FORMAT
 62
     0
100
AcDbLine
 10
0.0
 20
0.0
 30
0.0
 11
2.5
 21
0.0
 31
0.0
  0
LINE
  5
10E
330
107
100
AcDbEntity
  8
FORMAT
 62
     0
100
AcDbLine
 10
0.0
 20
5.0
 30
0.0
 11
0.0
 21
16.5
 31
0.0
  0
LINE
  5
10F
330
107
100
AcDbEntity
  8
FORMAT
 62
     0
100
AcDbLine
 10
-5.0
 20
0.0
 30
0.0
 11
-16.5
 21
0.0
 31
0.0
  0
LINE
  5
110
330
107
100
AcDbEntity
  8
FORMAT
 62
     0
100
AcDbLine
 10
0.0
 20
-5.0
 30
0.0
 11
0.0
 21
-16.5
 31
0.0
  0
LINE
  5
111
330
107
100
AcDbEntity
  8
FORMAT
 62
     0
100
AcDbLine
 10
5.0
 20
0.0
 30
0.0
 11
16.5
 21
0.0
 31
0.0
  0
ENDBLK
  5
109
330
107
100
AcDbEntity
  8
0
100
AcDbBlockEnd
  0
BLOCK
  5
114
330
113
100
AcDbEntity
  8
0
100
AcDbBlockBegin
  2
SW_CENTERMARKSYMBOL_9
 70
     0
 10
0.0
 20
0.0
 30
0.0
  3
SW_CENTERMARKSYMBOL_9
  1

  0
LINE
  5
116
330
113
100
AcDbEntity
  8
FORMAT
 62
     0
100
AcDbLine
 10
0.0
 20
0.0
 30
0.0
 11
0.0
 21
2.5
 31
0.0
  0
LINE
  5
117
330
113
100
AcDbEntity
  8
FORMAT
 62
     0
100
AcDbLine
 10
0.0
 20
0.0
 30
0.0
 11
-2.5
 21
0.0
 31
0.0
  0
LINE
  5
118
330
113
100
AcDbEntity
  8
FORMAT
 62
     0
100
AcDbLine
 10
0.0
 20
0.0
 30
0.0
 11
0.0
 21
-2.5
 31
0.0
  0
LINE
  5
119
330
113
100
AcDbEntity
  8
FORMAT
 62
     0
100
AcDbLine
 10
0.0
 20
0.0
 30
0.0
 11
2.5
 21
0.0
 31
0.0
  0
LINE
  5
11A
330
113
100
AcDbEntity
  8
FORMAT
 62
     0
100
AcDbLine
 10
0.0
 20
5.0
 30
0.0
 11
0.0
 21
16.5
 31
0.0
  0
LINE
  5
11B
330
113
100
AcDbEntity
  8
FORMAT
 62
     0
100
AcDbLine
 10
-5.0
 20
0.0
 30
0.0
 11
-16.5
 21
0.0
 31
0.0
  0
LINE
  5
11C
330
113
100
AcDbEntity
  8
FORMAT
 62
     0
100
AcDbLine
 10
0.0
 20
-5.0
 30
0.0
 11
0.0
 21
-16.5
 31
0.0
  0
LINE
  5
11D
330
113
100
AcDbEntity
  8
FORMAT
 62
     0
100
AcDbLine
 10
5.0
 20
0.0
 30
0.0
 11
16.5
 21
0.0
 31
0.0
  0
ENDBLK
  5
115
330
113
100
AcDbEntity
  8
0
100
AcDbBlockEnd
  0
BLOCK
  5
120
330
11F
100
AcDbEntity
  8
0
100
AcDbBlockBegin
  2
SW_CENTERMARKSYMBOL_10
 70
     0
 10
0.0
 20
0.0
 30
0.0
  3
SW_CENTERMARKSYMBOL_10
  1

  0
LINE
  5
122
330
11F
100
AcDbEntity
  8
FORMAT
 62
     0
100
AcDbLine
 10
0.0
 20
0.0
 30
0.0
 11
0.0
 21
2.5
 31
0.0
  0
LINE
  5
123
330
11F
100
AcDbEntity
  8
FORMAT
 62
     0
100
AcDbLine
 10
0.0
 20
0.0
 30
0.0
 11
-2.5
 21
0.0
 31
0.0
  0
LINE
  5
124
330
11F
100
AcDbEntity
  8
FORMAT
 62
     0
100
AcDbLine
 10
0.0
 20
0.0
 30
0.0
 11
0.0
 21
-2.5
 31
0.0
  0
LINE
  5
125
330
11F
100
AcDbEntity
  8
FORMAT
 62
     0
100
AcDbLine
 10
0.0
 20
0.0
 30
0.0
 11
2.5
 21
0.0
 31
0.0
  0
LINE
  5
126
330
11F
100
AcDbEntity
  8
FORMAT
 62
     0
100
AcDbLine
 10
0.0
 20
5.0
 30
0.0
 11
0.0
 21
16.5
 31
0.0
  0
LINE
  5
127
330
11F
100
AcDbEntity
  8
FORMAT
 62
     0
100
AcDbLine
 10
-5.0
 20
0.0
 30
0.0
 11
-16.5
 21
0.0
 31
0.0
  0
LINE
  5
128
330
11F
100
AcDbEntity
  8
FORMAT
 62
     0
100
AcDbLine
 10
0.0
 20
-5.0
 30
0.0
 11
0.0
 21
-16.5
 31
0.0
  0
LINE
  5
129
330
11F
100
AcDbEntity
  8
FORMAT
 62
     0
100
AcDbLine
 10
5.0
 20
0.0
 30
0.0
 11
16.5
 21
0.0
 31
0.0
  0
ENDBLK
  5
121
330
11F
100
AcDbEntity
  8
0
100
AcDbBlockEnd
  0
BLOCK
  5
12C
330
12B
100
AcDbEntity
  8
0
100
AcDbBlockBegin
  2
SW_CENTERMARKSYMBOL_11
 70
     0
 10
0.0
 20
0.0
 30
0.0
  3
SW_CENTERMARKSYMBOL_11
  1

  0
LINE
  5
12E
330
12B
100
AcDbEntity
  8
FORMAT
 62
     0
100
AcDbLine
 10
0.0
 20
0.0
 30
0.0
 11
0.0
 21
2.5
 31
0.0
  0
LINE
  5
12F
330
12B
100
AcDbEntity
  8
FORMAT
 62
     0
100
AcDbLine
 10
0.0
 20
0.0
 30
0.0
 11
-2.5
 21
0.0
 31
0.0
  0
LINE
  5
130
330
12B
100
AcDbEntity
  8
FORMAT
 62
     0
100
AcDbLine
 10
0.0
 20
0.0
 30
0.0
 11
0.0
 21
-2.5
 31
0.0
  0
LINE
  5
131
330
12B
100
AcDbEntity
  8
FORMAT
 62
     0
100
AcDbLine
 10
0.0
 20
0.0
 30
0.0
 11
2.5
 21
0.0
 31
0.0
  0
LINE
  5
132
330
12B
100
AcDbEntity
  8
FORMAT
 62
     0
100
AcDbLine
 10
0.0
 20
5.0
 30
0.0
 11
0.0
 21
16.5
 31
0.0
  0
LINE
  5
133
330
12B
100
AcDbEntity
  8
FORMAT
 62
     0
100
AcDbLine
 10
-5.0
 20
0.0
 30
0.0
 11
-16.5
 21
0.0
 31
0.0
  0
LINE
  5
134
330
12B
100
AcDbEntity
  8
FORMAT
 62
     0
100
AcDbLine
 10
0.0
 20
-5.0
 30
0.0
 11
0.0
 21
-16.5
 31
0.0
  0
LINE
  5
135
330
12B
100
AcDbEntity
  8
FORMAT
 62
     0
100
AcDbLine
 10
5.0
 20
0.0
 30
0.0
 11
16.5
 21
0.0
 31
0.0
  0
ENDBLK
  5
12D
330
12B
100
AcDbEntity
  8
0
100
AcDbBlockEnd
  0
BLOCK
  5
138
330
137
100
AcDbEntity
  8
0
100
AcDbBlockBegin
  2
SW_CENTERMARKSYMBOL_12
 70
     0
 10
0.0
 20
0.0
 30
0.0
  3
SW_CENTERMARKSYMBOL_12
  1

  0
LINE
  5
13A
330
137
100
AcDbEntity
  8
FORMAT
 62
     0
100
AcDbLine
 10
0.0
 20
0.0
 30
0.0
 11
0.0
 21
2.5
 31
0.0
  0
LINE
  5
13B
330
137
100
AcDbEntity
  8
FORMAT
 62
     0
100
AcDbLine
 10
0.0
 20
0.0
 30
0.0
 11
-2.5
 21
0.0
 31
0.0
  0
LINE
  5
13C
330
137
100
AcDbEntity
  8
FORMAT
 62
     0
100
AcDbLine
 10
0.0
 20
0.0
 30
0.0
 11
0.0
 21
-2.5
 31
0.0
  0
LINE
  5
13D
330
137
100
AcDbEntity
  8
FORMAT
 62
     0
100
AcDbLine
 10
0.0
 20
0.0
 30
0.0
 11
2.5
 21
0.0
 31
0.0
  0
LINE
  5
13E
330
137
100
AcDbEntity
  8
FORMAT
 62
     0
100
AcDbLine
 10
0.0
 20
5.0
 30
0.0
 11
0.0
 21
16.5
 31
0.0
  0
LINE
  5
13F
330
137
100
AcDbEntity
  8
FORMAT
 62
     0
100
AcDbLine
 10
-5.0
 20
0.0
 30
0.0
 11
-16.5
 21
0.0
 31
0.0
  0
LINE
  5
140
330
137
100
AcDbEntity
  8
FORMAT
 62
     0
100
AcDbLine
 10
0.0
 20
-5.0
 30
0.0
 11
0.0
 21
-16.5
 31
0.0
  0
LINE
  5
141
330
137
100
AcDbEntity
  8
FORMAT
 62
     0
100
AcDbLine
 10
5.0
 20
0.0
 30
0.0
 11
16.5
 21
0.0
 31
0.0
  0
ENDBLK
  5
139
330
137
100
AcDbEntity
  8
0
100
AcDbBlockEnd
  0
BLOCK
  5
144
330
143
100
AcDbEntity
  8
0
100
AcDbBlockBegin
  2
SW_CENTERMARKSYMBOL_13
 70
     0
 10
0.0
 20
0.0
 30
0.0
  3
SW_CENTERMARKSYMBOL_13
  1

  0
LINE
  5
146
330
143
100
AcDbEntity
  8
FORMAT
 62
     0
100
AcDbLine
 10
0.0
 20
0.0
 30
0.0
 11
0.0
 21
2.5
 31
0.0
  0
LINE
  5
147
330
143
100
AcDbEntity
  8
FORMAT
 62
     0
100
AcDbLine
 10
0.0
 20
0.0
 30
0.0
 11
-2.5
 21
0.0
 31
0.0
  0
LINE
  5
148
330
143
100
AcDbEntity
  8
FORMAT
 62
     0
100
AcDbLine
 10
0.0
 20
0.0
 30
0.0
 11
0.0
 21
-2.5
 31
0.0
  0
LINE
  5
149
330
143
100
AcDbEntity
  8
FORMAT
 62
     0
100
AcDbLine
 10
0.0
 20
0.0
 30
0.0
 11
2.5
 21
0.0
 31
0.0
  0
LINE
  5
14A
330
143
100
AcDbEntity
  8
FORMAT
 62
     0
100
AcDbLine
 10
0.0
 20
5.0
 30
0.0
 11
0.0
 21
16.5
 31
0.0
  0
LINE
  5
14B
330
143
100
AcDbEntity
  8
FORMAT
 62
     0
100
AcDbLine
 10
-5.0
 20
0.0
 30
0.0
 11
-16.5
 21
0.0
 31
0.0
  0
LINE
  5
14C
330
143
100
AcDbEntity
  8
FORMAT
 62
     0
100
AcDbLine
 10
0.0
 20
-5.0
 30
0.0
 11
0.0
 21
-16.5
 31
0.0
  0
LINE
  5
14D
330
143
100
AcDbEntity
  8
FORMAT
 62
     0
100
AcDbLine
 10
5.0
 20
0.0
 30
0.0
 11
16.5
 21
0.0
 31
0.0
  0
ENDBLK
  5
145
330
143
100
AcDbEntity
  8
0
100
AcDbBlockEnd
  0
BLOCK
  5
150
330
14F
100
AcDbEntity
  8
0
100
AcDbBlockBegin
  2
SW_CENTERMARKSYMBOL_14
 70
     0
 10
0.0
 20
0.0
 30
0.0
  3
SW_CENTERMARKSYMBOL_14
  1

  0
LINE
  5
152
330
14F
100
AcDbEntity
  8
FORMAT
 62
     0
100
AcDbLine
 10
0.0
 20
0.0
 30
0.0
 11
0.0
 21
2.5
 31
0.0
  0
LINE
  5
153
330
14F
100
AcDbEntity
  8
FORMAT
 62
     0
100
AcDbLine
 10
0.0
 20
0.0
 30
0.0
 11
-2.5
 21
0.0
 31
0.0
  0
LINE
  5
154
330
14F
100
AcDbEntity
  8
FORMAT
 62
     0
100
AcDbLine
 10
0.0
 20
0.0
 30
0.0
 11
0.0
 21
-2.5
 31
0.0
  0
LINE
  5
155
330
14F
100
AcDbEntity
  8
FORMAT
 62
     0
100
AcDbLine
 10
0.0
 20
0.0
 30
0.0
 11
2.5
 21
0.0
 31
0.0
  0
LINE
  5
156
330
14F
100
AcDbEntity
  8
FORMAT
 62
     0
100
AcDbLine
 10
0.0
 20
5.0
 30
0.0
 11
0.0
 21
16.5
 31
0.0
  0
LINE
  5
157
330
14F
100
AcDbEntity
  8
FORMAT
 62
     0
100
AcDbLine
 10
-5.0
 20
0.0
 30
0.0
 11
-16.5
 21
0.0
 31
0.0
  0
LINE
  5
158
330
14F
100
AcDbEntity
  8
FORMAT
 62
     0
100
AcDbLine
 10
0.0
 20
-5.0
 30
0.0
 11
0.0
 21
-16.5
 31
0.0
  0
LINE
  5
159
330
14F
100
AcDbEntity
  8
FORMAT
 62
     0
100
AcDbLine
 10
5.0
 20
0.0
 30
0.0
 11
16.5
 21
0.0
 31
0.0
  0
ENDBLK
  5
151
330
14F
100
AcDbEntity
  8
0
100
AcDbBlockEnd
  0
BLOCK
  5
15C
330
15B
100
AcDbEntity
  8
0
100
AcDbBlockBegin
  2
SW_CENTERMARKSYMBOL_15
 70
     0
 10
0.0
 20
0.0
 30
0.0
  3
SW_CENTERMARKSYMBOL_15
  1

  0
LINE
  5
15E
330
15B
100
AcDbEntity
  8
FORMAT
 62
     0
100
AcDbLine
 10
0.0
 20
0.0
 30
0.0
 11
0.0
 21
2.5
 31
0.0
  0
LINE
  5
15F
330
15B
100
AcDbEntity
  8
FORMAT
 62
     0
100
AcDbLine
 10
0.0
 20
0.0
 30
0.0
 11
-2.5
 21
0.0
 31
0.0
  0
LINE
  5
160
330
15B
100
AcDbEntity
  8
FORMAT
 62
     0
100
AcDbLine
 10
0.0
 20
0.0
 30
0.0
 11
0.0
 21
-2.5
 31
0.0
  0
LINE
  5
161
330
15B
100
AcDbEntity
  8
FORMAT
 62
     0
100
AcDbLine
 10
0.0
 20
0.0
 30
0.0
 11
2.5
 21
0.0
 31
0.0
  0
LINE
  5
162
330
15B
100
AcDbEntity
  8
FORMAT
 62
     0
100
AcDbLine
 10
0.0
 20
5.0
 30
0.0
 11
0.0
 21
16.5
 31
0.0
  0
LINE
  5
163
330
15B
100
AcDbEntity
  8
FORMAT
 62
     0
100
AcDbLine
 10
-5.0
 20
0.0
 30
0.0
 11
-16.5
 21
0.0
 31
0.0
  0
LINE
  5
164
330
15B
100
AcDbEntity
  8
FORMAT
 62
     0
100
AcDbLine
 10
0.0
 20
-5.0
 30
0.0
 11
0.0
 21
-16.5
 31
0.0
  0
LINE
  5
165
330
15B
100
AcDbEntity
  8
FORMAT
 62
     0
100
AcDbLine
 10
5.0
 20
0.0
 30
0.0
 11
16.5
 21
0.0
 31
0.0
  0
ENDBLK
  5
15D
330
15B
100
AcDbEntity
  8
0
100
AcDbBlockEnd
  0
BLOCK
  5
168
330
167
100
AcDbEntity
  8
0
100
AcDbBlockBegin
  2
SW_CENTERMARKSYMBOL_16
 70
     0
 10
0.0
 20
0.0
 30
0.0
  3
SW_CENTERMARKSYMBOL_16
  1

  0
LINE
  5
16A
330
167
100
AcDbEntity
  8
FORMAT
 62
     0
100
AcDbLine
 10
0.0
 20
0.0
 30
0.0
 11
0.0
 21
2.5
 31
0.0
  0
LINE
  5
16B
330
167
100
AcDbEntity
  8
FORMAT
 62
     0
100
AcDbLine
 10
0.0
 20
0.0
 30
0.0
 11
-2.5
 21
0.0
 31
0.0
  0
LINE
  5
16C
330
167
100
AcDbEntity
  8
FORMAT
 62
     0
100
AcDbLine
 10
0.0
 20
0.0
 30
0.0
 11
0.0
 21
-2.5
 31
0.0
  0
LINE
  5
16D
330
167
100
AcDbEntity
  8
FORMAT
 62
     0
100
AcDbLine
 10
0.0
 20
0.0
 30
0.0
 11
2.5
 21
0.0
 31
0.0
  0
LINE
  5
16E
330
167
100
AcDbEntity
  8
FORMAT
 62
     0
100
AcDbLine
 10
0.0
 20
5.0
 30
0.0
 11
0.0
 21
16.5
 31
0.0
  0
LINE
  5
16F
330
167
100
AcDbEntity
  8
FORMAT
 62
     0
100
AcDbLine
 10
-5.0
 20
0.0
 30
0.0
 11
-16.5
 21
0.0
 31
0.0
  0
LINE
  5
170
330
167
100
AcDbEntity
  8
FORMAT
 62
     0
100
AcDbLine
 10
0.0
 20
-5.0
 30
0.0
 11
0.0
 21
-16.5
 31
0.0
  0
LINE
  5
171
330
167
100
AcDbEntity
  8
FORMAT
 62
     0
100
AcDbLine
 10
5.0
 20
0.0
 30
0.0
 11
16.5
 21
0.0
 31
0.0
  0
ENDBLK
  5
169
330
167
100
AcDbEntity
  8
0
100
AcDbBlockEnd
  0
ENDSEC
  0
SECTION
  2
ENTITIES
  0
CIRCLE
  5
83
330
1F
100
AcDbEntity
  8
0
  6
Continuous
 62
     7
370
    25
100
AcDbCircle
 10
-50.8158447279
 20
286.2316648506
 30
0.0
 40
14.00000000000001
  0
CIRCLE
  5
84
330
1F
100
AcDbEntity
  8
0
  6
Continuous
 62
     7
370
    25
100
AcDbCircle
 10
-126.2358485724
 20
104.151668695
 30
0.0
 40
14.00000000000001
  0
CIRCLE
  5
85
330
1F
100
AcDbEntity
  8
0
  6
Continuous
 62
     7
370
    25
100
AcDbCircle
 10
-50.8158447279
 20
-77.9283274605
 30
0.0
 40
14.00000000000001
  0
CIRCLE
  5
86
330
1F
100
AcDbEntity
  8
0
  6
Continuous
 62
     7
370
    25
100
AcDbCircle
 10
131.2641514276
 20
-153.348331305
 30
0.0
 40
14.0
  0
CIRCLE
  5
87
330
1F
100
AcDbEntity
  8
0
  6
Continuous
 62
     7
370
    25
100
AcDbCircle
 10
313.3441475832
 20
-77.9283274606
 30
0.0
 40
14.0
  0
CIRCLE
  5
88
330
1F
100
AcDbEntity
  8
0
  6
Continuous
 62
     7
370
    25
100
AcDbCircle
 10
369.1631310494
 20
202.692652529
 30
0.0
 40
14.0
  0
CIRCLE
  5
89
330
1F
100
AcDbEntity
  8
0
  6
Continuous
 62
     7
370
    25
100
AcDbCircle
 10
229.8051352617
 20
342.0506483167
 30
0.0
 40
14.0
  0
CIRCLE
  5
8A
330
1F
100
AcDbEntity
  8
0
  6
Continuous
 62
     7
370
    25
100
AcDbCircle
 10
131.2641514277
 20
361.6516686951
 30
0.0
 40
14.0
  0
CIRCLE
  5
8B
330
1F
100
AcDbEntity
  8
0
  6
Continuous
 62
     7
370
    25
100
AcDbCircle
 10
131.2641514277
 20
104.1516686951
 30
0.0
 40
284.4999999999999
  0
CIRCLE
  5
8C
330
1F
100
AcDbEntity
  8
0
  6
Continuous
 62
     7
370
    25
100
AcDbCircle
 10
131.2641514277
 20
104.1516686951
 30
0.0
 40
216.0
  0
CIRCLE
  5
8D
330
1F
100
AcDbEntity
  8
0
  6
Continuous
 62
     7
370
    25
100
AcDbCircle
 10
388.7641514277
 20
104.151668695
 30
0.0
 40
14.00000000000006
  0
CIRCLE
  5
8E
330
1F
100
AcDbEntity
  8
0
  6
Continuous
 62
     7
370
    25
100
AcDbCircle
 10
313.3441475832
 20
286.2316648506
 30
0.0
 40
14.0
  0
CIRCLE
  5
8F
330
1F
100
AcDbEntity
  8
0
  6
Continuous
 62
     7
370
    25
100
AcDbCircle
 10
369.1631310493
 20
5.610684861
 30
0.0
 40
14.0
  0
CIRCLE
  5
90
330
1F
100
AcDbEntity
  8
0
  6
Continuous
 62
     7
370
    25
100
AcDbCircle
 10
229.8051352617
 20
-133.7473109267
 30
0.0
 40
14.00000000000003
  0
CIRCLE
  5
91
330
1F
100
AcDbEntity
  8
0
  6
Continuous
 62
     7
370
    25
100
AcDbCircle
 10
32.7231675936
 20
-133.7473109267
 30
0.0
 40
14.00000000000001
  0
CIRCLE
  5
92
330
1F
100
AcDbEntity
  8
0
  6
Continuous
 62
     7
370
    25
100
AcDbCircle
 10
-106.634828194
 20
5.610684861
 30
0.0
 40
14.00000000000001
  0
CIRCLE
  5
93
330
1F
100
AcDbEntity
  8
0
  6
Continuous
 62
     7
370
    25
100
AcDbCircle
 10
-106.634828194
 20
202.6926525291
 30
0.0
 40
14.00000000000001
  0
CIRCLE
  5
94
330
1F
100
AcDbEntity
  8
0
  6
Continuous
 62
     7
370
    25
100
AcDbCircle
 10
32.7231675937
 20
342.0506483167
 30
0.0
 40
13.99999999999999
  0
CIRCLE
  5
95
330
1F
100
AcDbEntity
  8
0
  6
Continuous
 62
     7
370
    25
100
AcDbCircle
 10
369.1631310493
 20
5.610684861
 30
0.0
 40
13.0
  0
CIRCLE
  5
96
330
1F
100
AcDbEntity
  8
0
  6
Continuous
 62
     7
370
    25
100
AcDbCircle
 10
313.3441475832
 20
286.2316648506
 30
0.0
 40
13.0
  0
CIRCLE
  5
97
330
1F
100
AcDbEntity
  8
0
  6
Continuous
 62
     7
370
    25
100
AcDbCircle
 10
388.7641514277
 20
104.151668695
 30
0.0
 40
13.00000000000006
  0
CIRCLE
  5
98
330
1F
100
AcDbEntity
  8
0
  6
Continuous
 62
     7
370
    25
100
AcDbCircle
 10
131.2641514277
 20
104.1516686951
 30
0.0
 40
215.0
  0
CIRCLE
  5
99
330
1F
100
AcDbEntity
  8
0
  6
Continuous
 62
     7
370
    25
100
AcDbCircle
 10
131.2641514277
 20
104.1516686951
 30
0.0
 40
285.4999999999999
  0
CIRCLE
  5
9A
330
1F
100
AcDbEntity
  8
0
  6
Continuous
 62
     7
370
    25
100
AcDbCircle
 10
131.2641514277
 20
361.6516686951
 30
0.0
 40
13.0
  0
CIRCLE
  5
9B
330
1F
100
AcDbEntity
  8
0
  6
Continuous
 62
     7
370
    25
100
AcDbCircle
 10
229.8051352617
 20
342.0506483167
 30
0.0
 40
13.0
  0
CIRCLE
  5
9C
330
1F
100
AcDbEntity
  8
0
  6
Continuous
 62
     7
370
    25
100
AcDbCircle
 10
369.1631310494
 20
202.692652529
 30
0.0
 40
13.0
  0
CIRCLE
  5
9D
330
1F
100
AcDbEntity
  8
0
  6
Continuous
 62
     7
370
    25
100
AcDbCircle
 10
313.3441475832
 20
-77.9283274606
 30
0.0
 40
13.0
  0
CIRCLE
  5
9E
330
1F
100
AcDbEntity
  8
0
  6
Continuous
 62
     7
370
    25
100
AcDbCircle
 10
32.7231675937
 20
342.0506483167
 30
0.0
 40
12.99999999999999
  0
CIRCLE
  5
9F
330
1F
100
AcDbEntity
  8
0
  6
Continuous
 62
     7
370
    25
100
AcDbCircle
 10
-106.634828194
 20
202.6926525291
 30
0.0
 40
13.00000000000001
  0
CIRCLE
  5
A0
330
1F
100
AcDbEntity
  8
0
  6
Continuous
 62
     7
370
    25
100
AcDbCircle
 10
-106.634828194
 20
5.610684861
 30
0.0
 40
13.00000000000001
  0
CIRCLE
  5
A1
330
1F
100
AcDbEntity
  8
0
  6
Continuous
 62
     7
370
    25
100
AcDbCircle
 10
32.7231675936
 20
-133.7473109267
 30
0.0
 40
13.00000000000001
  0
CIRCLE
  5
A2
330
1F
100
AcDbEntity
  8
0
  6
Continuous
 62
     7
370
    25
100
AcDbCircle
 10
229.8051352617
 20
-133.7473109267
 30
0.0
 40
13.00000000000003
  0
CIRCLE
  5
A3
330
1F
100
AcDbEntity
  8
0
  6
Continuous
 62
     7
370
    25
100
AcDbCircle
 10
-50.8158447279
 20
-77.9283274605
 30
0.0
 40
13.00000000000001
  0
CIRCLE
  5
A4
330
1F
100
AcDbEntity
  8
0
  6
Continuous
 62
     7
370
    25
100
AcDbCircle
 10
-126.2358485724
 20
104.151668695
 30
0.0
 40
13.00000000000001
  0
CIRCLE
  5
A5
330
1F
100
AcDbEntity
  8
0
  6
Continuous
 62
     7
370
    25
100
AcDbCircle
 10
131.2641514276
 20
-153.348331305
 30
0.0
 40
13.0
  0
CIRCLE
  5
A6
330
1F
100
AcDbEntity
  8
0
  6
Continuous
 62
     7
370
    25
100
AcDbCircle
 10
-50.8158447279
 20
286.2316648506
 30
0.0
 40
13.00000000000001
  0
INSERT
  5
B2
330
1F
100
AcDbEntity
  8
FORMAT
 62
     7
100
AcDbBlockReference
  2
SW_CENTERMARKSYMBOL_0
 10
131.2641514277
 20
104.1516686951
 30
0.0
  0
INSERT
  5
BE
330
1F
100
AcDbEntity
  8
FORMAT
 62
     7
100
AcDbBlockReference
  2
SW_CENTERMARKSYMBOL_1
 10
131.2641514277
 20
361.6516686951
 30
0.0
  0
INSERT
  5
CA
330
1F
100
AcDbEntity
  8
FORMAT
 62
     7
100
AcDbBlockReference
  2
SW_CENTERMARKSYMBOL_2
 10
229.8051352617
 20
342.0506483167
 30
0.0
  0
INSERT
  5
D6
330
1F
100
AcDbEntity
  8
FORMAT
 62
     7
100
AcDbBlockReference
  2
SW_CENTERMARKSYMBOL_3
 10
313.3441475832
 20
286.2316648506
 30
0.0
  0
INSERT
  5
E2
330
1F
100
AcDbEntity
  8
FORMAT
 62
     7
100
AcDbBlockReference
  2
SW_CENTERMARKSYMBOL_4
 10
369.1631310494
 20
202.692652529
 30
0.0
  0
INSERT
  5
EE
330
1F
100
AcDbEntity
  8
FORMAT
 62
     7
100
AcDbBlockReference
  2
SW_CENTERMARKSYMBOL_5
 10
32.7231675937
 20
342.0506483167
 30
0.0
  0
INSERT
  5
FA
330
1F
100
AcDbEntity
  8
FORMAT
 62
     7
100
AcDbBlockReference
  2
SW_CENTERMARKSYMBOL_6
 10
-50.8158447279
 20
286.2316648506
 30
0.0
  0
INSERT
  5
106
330
1F
100
AcDbEntity
  8
FORMAT
 62
     7
100
AcDbBlockReference
  2
SW_CENTERMARKSYMBOL_7
 10
-106.634828194
 20
202.6926525291
 30
0.0
  0
INSERT
  5
112
330
1F
100
AcDbEntity
  8
FORMAT
 62
     7
100
AcDbBlockReference
  2
SW_CENTERMARKSYMBOL_8
 10
-126.2358485724
 20
104.151668695
 30
0.0
  0
INSERT
  5
11E
330
1F
100
AcDbEntity
  8
FORMAT
 62
     7
100
AcDbBlockReference
  2
SW_CENTERMARKSYMBOL_9
 10
-106.634828194
 20
5.610684861
 30
0.0
  0
INSERT
  5
12A
330
1F
100
AcDbEntity
  8
FORMAT
 62
     7
100
AcDbBlockReference
  2
SW_CENTERMARKSYMBOL_10
 10
-50.8158447279
 20
-77.9283274605
 30
0.0
  0
INSERT
  5
136
330
1F
100
AcDbEntity
  8
FORMAT
 62
     7
100
AcDbBlockReference
  2
SW_CENTERMARKSYMBOL_11
 10
32.7231675936
 20
-133.7473109267
 30
0.0
  0
INSERT
  5
142
330
1F
100
AcDbEntity
  8
FORMAT
 62
     7
100
AcDbBlockReference
  2
SW_CENTERMARKSYMBOL_12
 10
131.2641514276
 20
-153.348331305
 30
0.0
  0
INSERT
  5
14E
330
1F
100
AcDbEntity
  8
FORMAT
 62
     7
100
AcDbBlockReference
  2
SW_CENTERMARKSYMBOL_13
 10
229.8051352617
 20
-133.7473109267
 30
0.0
  0
INSERT
  5
15A
330
1F
100
AcDbEntity
  8
FORMAT
 62
     7
100
AcDbBlockReference
  2
SW_CENTERMARKSYMBOL_14
 10
313.3441475832
 20
-77.9283274606
 30
0.0
  0
INSERT
  5
166
330
1F
100
AcDbEntity
  8
FORMAT
 62
     7
100
AcDbBlockReference
  2
SW_CENTERMARKSYMBOL_15
 10
369.1631310493
 20
5.610684861
 30
0.0
  0
INSERT
  5
172
330
1F
100
AcDbEntity
  8
FORMAT
 62
     7
100
AcDbBlockReference
  2
SW_CENTERMARKSYMBOL_16
 10
388.7641514277
 20
104.151668695
 30
0.0
  0
ARC
  5
173
330
1F
100
AcDbEntity
  8
0
  6
Continuous
 62
     7
370
    25
100
AcDbCircle
 10
-505.032224469
 20
-180.3483313049
 30
0.0
 40
1.0
100
AcDbArc
 50
270.0
 51
0.0
  0
ARC
  5
174
330
1F
100
AcDbEntity
  8
0
  6
Continuous
 62
     7
370
    25
100
AcDbCircle
 10
-505.032224469
 20
388.6516686951
 30
0.0
 40
1.0
100
AcDbArc
 50
0.0
 51
90.0
  0
LINE
  5
175
330
1F
100
AcDbEntity
  8
0
  6
Continuous
 62
     7
370
    25
100
AcDbLine
 10
-505.032224469
 20
389.6516686951
 30
0.0
 11
-543.032224469
 21
389.6516686951
 31
0.0
  0
LINE
  5
176
330
1F
100
AcDbEntity
  8
0
  6
Continuous
 62
     7
370
    25
100
AcDbLine
 10
-543.032224469
 20
-181.3483313049
 30
0.0
 11
-505.032224469
 21
-181.3483313049
 31
0.0
  0
ARC
  5
177
330
1F
100
AcDbEntity
  8
0
  6
Continuous
 62
     7
370
    25
100
AcDbCircle
 10
-543.032224469
 20
-180.3483313049
 30
0.0
 40
1.0
100
AcDbArc
 50
180.0
 51
270.0
  0
ARC
  5
178
330
1F
100
AcDbEntity
  8
0
  6
Continuous
 62
     7
370
    25
100
AcDbCircle
 10
-543.032224469
 20
388.6516686951
 30
0.0
 40
1.0
100
AcDbArc
 50
90.0
 51
180.0
  0
LINE
  5
179
330
1F
100
AcDbEntity
  8
0
  6
Continuous
 62
     7
370
    25
100
AcDbLine
 10
-504.032224469
 20
104.1516686951
 30
0.0
 11
-504.032224469
 21
-180.3483313049
 31
0.0
  0
LINE
  5
17A
330
1F
100
AcDbEntity
  8
0
  6
Continuous
 62
     7
370
    25
100
AcDbLine
 10
-504.032224469
 20
388.6516686951
 30
0.0
 11
-504.032224469
 21
104.1516686951
 31
0.0
  0
LINE
  5
17B
330
1F
100
AcDbEntity
  8
0
  6
Continuous
 62
     7
370
    25
100
AcDbLine
 10
-544.032224469
 20
104.1516686951
 30
0.0
 11
-544.032224469
 21
388.6516686951
 31
0.0
  0
LINE
  5
17C
330
1F
100
AcDbEntity
  8
0
  6
Continuous
 62
     7
370
    25
100
AcDbLine
 10
-544.032224469
 20
-180.3483313049
 30
0.0
 11
-544.032224469
 21
104.1516686951
 31
0.0
  0
LINE
  5
17D
330
1F
100
AcDbEntity
  8
0
  6
Continuous
 62
     1
370
    25
100
AcDbLine
 10
-505.032224469
 20
104.1516686951
 30
0.0
 11
-505.032224469
 21
389.6516686951
 31
0.0
  0
LINE
  5
17E
330
1F
100
AcDbEntity
  8
0
  6
Continuous
 62
     1
370
    25
100
AcDbLine
 10
-505.032224469
 20
-181.3483313049
 30
0.0
 11
-505.032224469
 21
104.1516686951
 31
0.0
  0
LINE
  5
17F
330
1F
100
AcDbEntity
  8
0
  6
Continuous
 62
     1
370
    25
100
AcDbLine
 10
-543.032224469
 20
104.1516686951
 30
0.0
 11
-543.032224469
 21
-181.3483313049
 31
0.0
  0
LINE
  5
180
330
1F
100
AcDbEntity
  8
0
  6
Continuous
 62
     1
370
    25
100
AcDbLine
 10
-543.032224469
 20
389.6516686951
 30
0.0
 11
-543.032224469
 21
104.1516686951
 31
0.0
  0
ARC
  5
181
330
1F
100
AcDbEntity
  8
0
  6
Continuous
 62
     7
370
    25
100
AcDbCircle
 10
839.8786802003
 20
388.6516686951
 30
0.0
 40
1.0
100
AcDbArc
 50
90.0
 51
180.0
  0
ARC
  5
182
330
1F
100
AcDbEntity
  8
0
  6
Continuous
 62
     7
370
    25
100
AcDbCircle
 10
839.8786802003
 20
-180.3483313049
 30
0.0
 40
1.0
100
AcDbArc
 50
180.0
 51
270.0
  0
LINE
  5
183
330
1F
100
AcDbEntity
  8
0
  6
Continuous
 62
     7
370
    25
100
AcDbLine
 10
839.8786802003
 20
-181.3483313049
 30
0.0
 11
877.8786802003
 21
-181.3483313049
 31
0.0
  0
LINE
  5
184
330
1F
100
AcDbEntity
  8
0
  6
Continuous
 62
     7
370
    25
100
AcDbLine
 10
877.8786802003
 20
389.6516686951
 30
0.0
 11
839.8786802003
 21
389.6516686951
 31
0.0
  0
ARC
  5
185
330
1F
100
AcDbEntity
  8
0
  6
Continuous
 62
     7
370
    25
100
AcDbCircle
 10
877.8786802003
 20
388.6516686951
 30
0.0
 40
1.0
100
AcDbArc
 50
0.0
 51
90.0
  0
ARC
  5
186
330
1F
100
AcDbEntity
  8
0
  6
Continuous
 62
     7
370
    25
100
AcDbCircle
 10
877.8786802003
 20
-180.3483313049
 30
0.0
 40
1.0
100
AcDbArc
 50
270.0
 51
0.0
  0
LINE
  5
187
330
1F
100
AcDbEntity
  8
0
  6
Continuous
 62
     7
370
    25
100
AcDbLine
 10
838.8786802003
 20
-180.3483313049
 30
0.0
 11
838.8786802003
 21
388.6516686951
 31
0.0
  0
LINE
  5
188
330
1F
100
AcDbEntity
  8
0
  6
Continuous
 62
     7
370
    25
100
AcDbLine
 10
878.8786802003
 20
388.6516686951
 30
0.0
 11
878.8786802003
 21
-180.3483313049
 31
0.0
  0
LINE
  5
189
330
1F
100
AcDbEntity
  8
0
  6
Continuous
 62
     1
370
    25
100
AcDbLine
 10
839.8786802003
 20
389.6516686951
 30
0.0
 11
839.8786802003
 21
-181.3483313049
 31
0.0
  0
LINE
  5
18A
330
1F
100
AcDbEntity
  8
0
  6
Continuous
 62
     1
370
    25
100
AcDbLine
 10
877.8786802003
 20
-181.3483313049
 30
0.0
 11
877.8786802003
 21
389.6516686951
 31
0.0
  0
ARC
  5
18B
330
1F
100
AcDbEntity
  8
0
  6
Continuous
 62
     7
370
    25
100
AcDbCircle
 10
-153.2358485723
 20
628.9820120753
 30
0.0
 40
1.0
100
AcDbArc
 50
180.0
 51
270.0
  0
ARC
  5
18C
330
1F
100
AcDbEntity
  8
0
  6
Continuous
 62
     7
370
    25
100
AcDbCircle
 10
415.7641514277
 20
628.9820120753
 30
0.0
 40
1.0
100
AcDbArc
 50
270.0
 51
0.0
  0
LINE
  5
18D
330
1F
100
AcDbEntity
  8
0
  6
Continuous
 62
     7
370
    25
100
AcDbLine
 10
416.7641514277
 20
628.9820120753
 30
0.0
 11
416.7641514277
 21
666.9820120753
 31
0.0
  0
LINE
  5
18E
330
1F
100
AcDbEntity
  8
0
  6
Continuous
 62
     7
370
    25
100
AcDbLine
 10
-154.2358485723
 20
666.9820120753
 30
0.0
 11
-154.2358485723
 21
628.9820120753
 31
0.0
  0
ARC
  5
18F
330
1F
100
AcDbEntity
  8
0
  6
Continuous
 62
     7
370
    25
100
AcDbCircle
 10
-153.2358485723
 20
666.9820120753
 30
0.0
 40
1.0
100
AcDbArc
 50
90.0
 51
180.0
  0
ARC
  5
190
330
1F
100
AcDbEntity
  8
0
  6
Continuous
 62
     7
370
    25
100
AcDbCircle
 10
415.7641514277
 20
666.9820120753
 30
0.0
 40
1.0
100
AcDbArc
 50
0.0
 51
90.0
  0
LINE
  5
191
330
1F
100
AcDbEntity
  8
0
  6
Continuous
 62
     7
370
    25
100
AcDbLine
 10
415.7641514277
 20
627.9820120753
 30
0.0
 11
-153.2358485712
 21
627.9820120753
 31
0.0
  0
LINE
  5
192
330
1F
100
AcDbEntity
  8
0
  6
Continuous
 62
     7
370
    25
100
AcDbLine
 10
-153.2358485712
 20
667.9820120753
 30
0.0
 11
415.7641514277
 21
667.9820120753
 31
0.0
  0
LINE
  5
193
330
1F
100
AcDbEntity
  8
0
  6
Continuous
 62
     1
370
    25
100
AcDbLine
 10
-154.2358485723
 20
628.9820120753
 30
0.0
 11
416.7641514277
 21
628.9820120753
 31
0.0
  0
LINE
  5
194
330
1F
100
AcDbEntity
  8
0
  6
Continuous
 62
     1
370
    25
100
AcDbLine
 10
416.7641514277
 20
666.9820120753
 30
0.0
 11
-154.2358485723
 21
666.9820120753
 31
0.0
  0
ARC
  5
195
330
1F
100
AcDbEntity
  8
0
  6
Continuous
 62
     7
370
    25
100
AcDbCircle
 10
415.7641514277
 20
-429.6630418033
 30
0.0
 40
1.0
100
AcDbArc
 50
0.0
 51
90.0
  0
ARC
  5
196
330
1F
100
AcDbEntity
  8
0
  6
Continuous
 62
     7
370
    25
100
AcDbCircle
 10
-153.2358485723
 20
-429.6630418033
 30
0.0
 40
1.0
100
AcDbArc
 50
90.0
 51
180.0
  0
LINE
  5
197
330
1F
100
AcDbEntity
  8
0
  6
Continuous
 62
     7
370
    25
100
AcDbLine
 10
-154.2358485723
 20
-429.6630418033
 30
0.0
 11
-154.2358485723
 21
-467.6630418033
 31
0.0
  0
LINE
  5
198
330
1F
100
AcDbEntity
  8
0
  6
Continuous
 62
     7
370
    25
100
AcDbLine
 10
416.7641514277
 20
-467.6630418033
 30
0.0
 11
416.7641514277
 21
-429.6630418033
 31
0.0
  0
ARC
  5
199
330
1F
100
AcDbEntity
  8
0
  6
Continuous
 62
     7
370
    25
100
AcDbCircle
 10
415.7641514277
 20
-467.6630418033
 30
0.0
 40
1.0
100
AcDbArc
 50
270.0
 51
0.0
  0
ARC
  5
19A
330
1F
100
AcDbEntity
  8
0
  6
Continuous
 62
     7
370
    25
100
AcDbCircle
 10
-153.2358485723
 20
-467.6630418033
 30
0.0
 40
1.0
100
AcDbArc
 50
180.0
 51
270.0
  0
LINE
  5
19B
330
1F
100
AcDbEntity
  8
0
  6
Continuous
 62
     7
370
    25
100
AcDbLine
 10
-153.2358485712
 20
-428.6630418033
 30
0.0
 11
415.7641514277
 21
-428.6630418033
 31
0.0
  0
LINE
  5
19C
330
1F
100
AcDbEntity
  8
0
  6
Continuous
 62
     7
370
    25
100
AcDbLine
 10
415.7641514277
 20
-468.6630418033
 30
0.0
 11
-153.2358485712
 21
-468.6630418033
 31
0.0
  0
LINE
  5
19D
330
1F
100
AcDbEntity
  8
0
  6
Continuous
 62
     1
370
    25
100
AcDbLine
 10
416.7641514277
 20
-429.6630418033
 30
0.0
 11
-154.2358485723
 21
-429.6630418033
 31
0.0
  0
LINE
  5
19E
330
1F
100
AcDbEntity
  8
0
  6
Continuous
 62
     1
370
    25
100
AcDbLine
 10
-154.2358485723
 20
-467.6630418033
 30
0.0
 11
416.7641514277
 21
-467.6630418033
 31
0.0
  0
SPLINE
  5
19F
330
1F
100
AcDbEntity
  8
0
  6
Continuous
 62
     7
370
    25
100
AcDbSpline
210
0.0
220
0.0
230
1.0
 70
     8
 71
     3
 72
    87
 73
    83
 74
     0
 42
0.00000001
 43
0.00000001
 40
0.0
 40
0.0
 40
0.0
 40
0.0
 40
0.0000385377002044
 40
0.012734784687931
 40
0.0254351923949388
 40
0.038139604933952
 40
0.0508477565249333
 40
0.0635593042287284
 40
0.0762738585964071
 40
0.0889910101974569
 40
0.1017103509945938
 40
0.1144314903497938
 40
0.1271540660205584
 40
0.139877750843642
 40
0.1526022559477577
 40
0.1653273313424397
 40
0.178052764650194
 40
0.1907783786265065
 40
0.2035040036490493
 40
0.2162295139213442
 40
0.2289548250842644
 40
0.2416798731526629
 40
0.2544046114359144
 40
0.2671290077741784
 40
0.2798530421033948
 40
0.2925767043423469
 40
0.3052999925822326
 40
0.3180229115520445
 40
0.3307454713300129
 40
0.3434676862709005
 40
0.3561895741201808
 40
0.3689111552882893
 40
0.3816324522607289
 40
0.3943534891226619
 40
0.4070742911792067
 40
0.4197948846553159
 40
0.4325152964612881
 40
0.4452355540120707
 40
0.457955685090133
 40
0.4706757177432828
 40
0.4833956802099009
 40
0.4961156008651031
 40
0.5088355081820785
 40
0.521555428830047
 40
0.5342753837536887
 40
0.5469954015729642
 40
0.5597155109140753
 40
0.5724357403763137
 40
0.5851561184873965
 40
0.5978766736411126
 40
0.610597434011177
 40
0.6233184274342879
 40
0.6360396812543255
 40
0.6487612221182449
 40
0.6614830757126187
 40
0.6742052664278914
 40
0.6869278169352108
 40
0.6996507476582742
 40
0.7123740761198492
 40
0.7250978161399336
 40
0.7378219768594598
 40
0.7505465615609809
 40
0.7632715662557477
 40
0.7759969780056624
 40
0.788722772949883
 40
0.8014489140101335
 40
0.8141753482577401
 40
0.8269020039411521
 40
0.8396287871977107
 40
0.8523555415554627
 40
0.8650820988062184
 40
0.8778082655256602
 40
0.8905338110550677
 40
0.9032584652475497
 40
0.9159819176581478
 40
0.9287038188833472
 40
0.9414237848720467
 40
0.9541414050880367
 40
0.9668562553559589
 40
0.9795679160115685
 40
0.9922759955485021
 40
0.9999999999999999
 40
0.9999999999999999
 40
0.9999999999999999
 40
0.9999999999999999
 10
952.6384916991967
 20
-260.6704479534155
 30
0.0
 10
952.6326425844989
 20
-260.6697772951683
 30
0.0
 10
950.6998023813676
 20
-260.4481582485306
 30
0.0
 10
946.7379189274947
 20
-260.2684681162121
 30
0.0
 10
940.7515580906014
 20
-260.1551502029292
 30
0.0
 10
934.6527829823486
 20
-260.3665220516776
 30
0.0
 10
928.4659767188679
 20
-260.8572017908976
 30
0.0
 10
922.19335674979
 20
-261.6388266386001
 30
0.0
 10
915.843222715367
 20
-262.7073139900667
 30
0.0
 10
909.4223638517112
 20
-264.0623610943187
 30
0.0
 10
902.938075169742
 20
-265.7022216009595
 30
0.0
 10
896.3975996409902
 20
-267.6251114490793
 30
0.0
 10
889.8082622276012
 20
-269.8288391963625
 30
0.0
 10
883.1774203161588
 20
-272.3109130212123
 30
0.0
 10
876.512464973518
 20
-275.068520259554
 30
0.0
 10
869.8208098885448
 20
-278.0985410793517
 30
0.0
 10
863.1098845932501
 20
-281.3975528033955
 30
0.0
 10
856.3871314938625
 20
-284.9618341926201
 30
0.0
 10
849.6599964670122
 20
-288.7873717547977
 30
0.0
 10
842.9359192251767
 20
-292.8698669187079
 30
0.0
 10
836.2223225690498
 20
-297.2047447878255
 30
0.0
 10
829.5266086319023
 20
-301.7871586783752
 30
0.0
 10
822.856155214175
 20
-306.6119938171565
 30
0.0
 10
816.2183088613813
 20
-311.673872928421
 30
0.0
 10
809.620377809398
 20
-316.9671619807759
 30
0.0
 10
803.0696248099975
 20
-322.4859761312566
 30
0.0
 10
796.5732598556067
 20
-328.2241858943135
 30
0.0
 10
790.1384328259072
 20
-334.1754235553531
 30
0.0
 10
783.7722260805205
 20
-340.3330898414809
 30
0.0
 10
777.4816470222871
 20
-346.6903608563157
 30
0.0
 10
771.2736206550494
 20
-353.2401952810902
 30
0.0
 10
765.1549821587109
 20
-359.9753418405107
 30
0.0
 10
759.1324695029333
 20
-366.8883470289691
 30
0.0
 10
753.2127161193235
 20
-373.9715630904236
 30
0.0
 10
747.4022436504252
 20
-381.2171562435784
 30
0.0
 10
741.7074547924052
 20
-388.6171151426611
 30
0.0
 10
736.1346262469548
 20
-396.163259563152
 30
0.0
 10
730.6899017967304
 20
-403.8472493010461
 30
0.0
 10
725.3792855175518
 20
-411.6605932737077
 30
0.0
 10
720.2086351396168
 20
-419.5946588099166
 30
0.0
 10
715.1836555691268
 20
-427.6406811163947
 30
0.0
 10
710.3098925809725
 20
-435.7897729078041
 30
0.0
 10
705.5927269240376
 20
-444.0329337822743
 30
0.0
 10
701.0373690304851
 20
-452.3610588560849
 30
0.0
 10
696.6488522123342
 20
-460.7649504107534
 30
0.0
 10
692.4320269207908
 20
-469.235328496892
 30
0.0
 10
688.3915548988632
 20
-477.7628425205098
 30
0.0
 10
684.5319050042898
 20
-486.3380799018361
 30
0.0
 10
680.8573483499197
 20
-494.9515764682327
 30
0.0
 10
677.3719536802765
 20
-503.5938268983806
 30
0.0
 10
674.0795829905469
 20
-512.2552952016952
 30
0.0
 10
670.9838873934499
 20
-520.9264252167187
 30
0.0
 10
668.0883032388125
 20
-529.5976511115534
 30
0.0
 10
665.3960484898292
 20
-538.259407868725
 30
0.0
 10
662.9101193590235
 20
-546.9021417360689
 30
0.0
 10
660.633287205707
 20
-555.5163206243839
 30
0.0
 10
658.5680956952438
 20
-564.0924444317144
 30
0.0
 10
656.7168582185844
 20
-572.6210552731782
 30
0.0
 10
655.0816555682437
 20
-581.0927475944213
 30
0.0
 10
653.6643338640952
 20
-589.4981781459978
 30
0.0
 10
652.4665027189222
 20
-597.828075795512
 30
0.0
 10
651.4895336295216
 20
-606.0732511542858
 30
0.0
 10
650.7345585742218
 20
-614.2246059959634
 30
0.0
 10
650.2024687919425
 20
-622.273142446085
 30
0.0
 10
649.8939137112641
 20
-630.20997192492
 30
0.0
 10
649.8092999911313
 20
-638.0263238305299
 30
0.0
 10
649.9487906260098
 20
-645.7135539586681
 30
0.0
 10
650.312304065866
 20
-653.2631526608523
 30
0.0
 10
650.8995127092957
 20
-660.6667456163092
 30
0.0
 10
651.7098410821594
 20
-667.9161056831513
 30
0.0
 10
652.7424641053236
 20
-675.0031626631692
 30
0.0
 10
653.9963072804925
 20
-681.9200170138406
 30
0.0
 10
655.4700432342846
 20
-688.6589460564027
 30
0.0
 10
657.1620960183719
 20
-695.2124027204502
 30
0.0
 10
659.070615123406
 20
-701.5730537858134
 30
0.0
 10
661.1935628662352
 20
-707.7336799640512
 30
0.0
 10
663.5283793020434
 20
-713.6875954807064
 30
0.0
 10
666.0732254272261
 20
-719.4271342281718
 30
0.0
 10
668.8223416576851
 20
-724.9493551241494
 30
0.0
 10
671.7833675044031
 20
-730.234819508836
 30
0.0
 10
674.5039480596448
 20
-734.6616579647148
 30
0.0
 10
676.3171176753547
 20
-737.22627549653
 30
0.0
 10
677.0025558416714
 20
-738.1957858628414
 30
0.0
  0
LINE
  5
1A0
330
1F
100
AcDbEntity
  8
0
  6
Continuous
 62
     7
370
    25
100
AcDbLine
 10
1021.6253068967
 20
-289.1753894075
 30
0.0
 11
994.7552492117
 21
-273.6636352829
 31
0.0
  0
LINE
  5
1A1
330
1F
100
AcDbEntity
  8
0
  6
Continuous
 62
     7
370
    25
100
AcDbLine
 10
709.2784510441
 20
-768.1775357023
 30
0.0
 11
736.1485087292
 21
-783.6892898269
 31
0.0
  0
SPLINE
  5
1A2
330
1F
100
AcDbEntity
  8
0
  6
Continuous
 62
     7
370
    25
100
AcDbSpline
210
0.0
220
0.0
230
1.0
 70
     8
 71
     3
 72
    71
 73
    67
 74
     0
 42
0.00000001
 43
0.00000001
 40
0.0
 40
0.0
 40
0.0
 40
0.0
 40
0.0073818097845161
 40
0.0232914974895861
 40
0.0392063004441012
 40
0.0551259363049006
 40
0.0710500096208964
 40
0.0869780516697426
 40
0.102909556001822
 40
0.118844007911119
 40
0.1347809071845329
 40
0.1507197843261932
 40
0.1666602109919813
 40
0.182601805640559
 40
0.1985442354757433
 40
0.2144872156910668
 40
0.2304305068896818
 40
0.246373900774714
 40
0.2623172017618892
 40
0.2782602926779686
 40
0.2942030835348931
 40
0.3101455075245208
 40
0.3260875173929055
 40
0.3420290822229983
 40
0.357970184626737
 40
0.3739108183273944
 40
0.3898509861017353
 40
0.4057906980457184
 40
0.4217299701257953
 40
0.4376688229787659
 40
0.4536072809253667
 40
0.4695453711658906
 40
0.4854831231296549
 40
0.5014205679534623
 40
0.5173577380675792
 40
0.5332946668706794
 40
0.5492313884778672
 40
0.5651679375282488
 40
0.5811043490404318
 40
0.5970406583060309
 40
0.6129769008125255
 40
0.6289131121879785
 40
0.6448493281608083
 40
0.6607855750728434
 40
0.6767218862990005
 40
0.6926582977050004
 40
0.7085948451409684
 40
0.7245315643922368
 40
0.7404684911110209
 40
0.7564056607215421
 40
0.772343108290205
 40
0.7882808683514153
 40
0.8042189746778163
 40
0.8201574599820963
 40
0.8360963555350139
 40
0.8520356906819531
 40
0.8679754922372069
 40
0.8839157837319594
 40
0.8998565844884949
 40
0.9157979084894575
 40
0.9317397630075704
 40
0.9476821469583949
 40
0.9636250489368391
 40
0.979568444898575
 40
0.9955122954510326
 40
1.0
 40
1.0
 40
1.0
 40
1.0
 10
779.0678241073192
 20
-796.7145111557134
 30
0.0
 10
779.9700794665308
 20
-796.7965372457753
 30
0.0
 10
782.8169258426218
 20
-797.0553505349991
 30
0.0
 10
787.7238183054156
 20
-797.1821698097505
 30
0.0
 10
793.7758556163288
 20
-797.107804799243
 30
0.0
 10
799.9285099754884
 20
-796.7283226104455
 30
0.0
 10
806.1671578014449
 20
-796.0645482929212
 30
0.0
 10
812.4868792790277
 20
-795.111686747044
 30
0.0
 10
818.8800252782522
 20
-793.872245429448
 30
0.0
 10
825.3395698374657
 20
-792.3472064863155
 30
0.0
 10
831.8582296353591
 20
-790.5383880964256
 30
0.0
 10
838.4287162635296
 20
-788.4478048622133
 30
0.0
 10
845.0436829772591
 20
-786.0778315631749
 30
0.0
 10
851.6957516135757
 20
-783.4311511245351
 30
0.0
 10
858.3775165870773
 20
-780.5107603330428
 30
0.0
 10
865.0815539183446
 20
-777.3199602217827
 30
0.0
 10
871.8004266305952
 20
-773.8623515871755
 30
0.0
 10
878.5266882126881
 20
-770.1418310929562
 30
0.0
 10
885.2528956769447
 20
-766.1625828741638
 30
0.0
 10
891.9716175550519
 20
-761.9290716747142
 30
0.0
 10
898.6754438172286
 20
-757.4460343438676
 30
0.0
 10
905.3569860097721
 20
-752.7184780411125
 30
0.0
 10
912.0088841216057
 20
-747.751674701949
 30
0.0
 10
918.6238135866836
 20
-742.5511553604763
 30
0.0
 10
925.1944924120526
 20
-737.1227042888306
 30
0.0
 10
931.7136884149735
 20
-731.4723529218277
 30
0.0
 10
938.1742265476132
 20
-725.6063735440825
 30
0.0
 10
944.568996285545
 20
-719.5312727242765
 30
0.0
 10
950.890959055519
 20
-713.2537844875036
 30
0.0
 10
957.1331556782725
 20
-706.7808632217275
 30
0.0
 10
963.2887138031053
 20
-700.1196763184707
 30
0.0
 10
969.3508553122634
 20
-693.2775965510656
 30
0.0
 10
975.3129036746648
 20
-686.2621941963063
 30
0.0
 10
981.16829123004
 20
-679.0812289072425
 30
0.0
 10
986.910566386032
 20
-671.7426413463205
 30
0.0
 10
992.5334007121942
 20
-664.2545445891761
 30
0.0
 10
998.0305959160971
 20
-656.6252153102031
 30
0.0
 10
1003.39609068789
 20
-648.8630847616531
 30
0.0
 10
1008.623967400694
 20
-640.9767295584836
 30
0.0
 10
1013.708458655084
 20
-632.9748622815682
 30
0.0
 10
1018.643953656736
 20
-624.8663219121165
 30
0.0
 10
1023.425004416946
 20
-616.6600641106074
 30
0.0
 10
1028.046330852657
 20
-608.3651529936672
 30
0.0
 10
1032.502827435061
 20
-599.9907500049361
 30
0.0
 10
1036.789569088088
 20
-591.5461033636049
 30
0.0
 10
1040.901817364353
 20
-583.0405361287371
 30
0.0
 10
1044.835024903602
 20
-574.483437092383
 30
0.0
 10
1048.584840155784
 20
-565.8842508441044
 30
0.0
 10
1052.147112100675
 20
-557.2524673455781
 30
0.0
 10
1055.517894727457
 20
-548.597611463513
 30
0.0
 10
1058.693451268733
 20
-539.9292324768279
 30
0.0
 10
1061.670258182992
 20
-531.2568935753011
 30
0.0
 10
1064.445008884507
 20
-522.5901613650014
 30
0.0
 10
1067.014617204877
 20
-513.9385954060451
 30
0.0
 10
1069.376220629936
 20
-505.3117377737885
 30
0.0
 10
1071.527183139351
 20
-496.7191027669026
 30
0.0
 10
1073.465098290507
 20
-488.170166396178
 30
0.0
 10
1075.187790157729
 20
-479.6743571194357
 30
0.0
 10
1076.693321059002
 20
-471.2410424564445
 30
0.0
 10
1077.979972762158
 20
-462.8795316179935
 30
0.0
 10
1079.046325528307
 20
-454.5990191129803
 30
0.0
 10
1079.890970923625
 20
-446.4087494958333
 30
0.0
 10
1080.513590499515
 20
-438.3173577301787
 30
0.0
 10
1080.910935856559
 20
-430.3352874065408
 30
0.0
 10
1081.048507872108
 20
-424.3506316529772
 30
0.0
 10
1081.056935883511
 20
-421.0280718908887
 30
0.0
 10
1081.058787060523
 20
-420.2982857104182
 30
0.0
  0
SPLINE
  5
1A3
330
1F
100
AcDbEntity
  8
0
  6
Continuous
 62
     7
370
    25
100
AcDbSpline
210
0.0
220
0.0
230
1.0
 70
     8
 71
     3
 72
    24
 73
    20
 74
     0
 42
0.00000001
 43
0.00000001
 40
0.0
 40
0.0
 40
0.0
 40
0.0
 40
0.0332874445033379
 40
0.0965236766816385
 40
0.1597632544929051
 40
0.2230032010274946
 40
0.286242659340037
 40
0.34948077136984
 40
0.4127165029398527
 40
0.4759486296612265
 40
0.5391757282554184
 40
0.6023961763844374
 40
0.6656081647537896
 40
0.7288097257360511
 40
0.7919987828701118
 40
0.8551732250604792
 40
0.9183310078446781
 40
0.9814702814719444
 40
1.0
 40
1.0
 40
1.0
 40
1.0
 10
1081.058787060523
 20
-420.2982857104182
 30
0.0
 10
1081.05254097654
 20
-418.9389948225803
 30
0.0
 10
1081.034429192958
 20
-414.9974560192395
 30
0.0
 10
1080.833204903623
 20
-408.5740586319849
 30
0.0
 10
1080.381693107206
 20
-401.0811851097388
 30
0.0
 10
1079.703642031026
 20
-393.7392632532706
 30
0.0
 10
1078.803589077923
 20
-386.5543975693772
 30
0.0
 10
1077.681427224016
 20
-379.5351687972554
 30
0.0
 10
1076.338608833096
 20
-372.6892511619321
 30
0.0
 10
1074.776490070097
 20
-366.0243354491984
 30
0.0
 10
1072.996766937384
 20
-359.5478852771238
 30
0.0
 10
1071.001399041209
 20
-353.2671438189427
 30
0.0
 10
1068.792490557478
 20
-347.1892953681682
 30
0.0
 10
1066.372853448
 20
-341.3207519930496
 30
0.0
 10
1063.743882165991
 20
-335.6697777853585
 30
0.0
 10
1060.913491782687
 20
-330.2366340727933
 30
0.0
 10
1057.866494509706
 20
-325.0502810215262
 30
0.0
 10
1055.426366424059
 20
-321.2128628878805
 30
0.0
 10
1053.939316504922
 20
-319.1853921813083
 30
0.0
 10
1053.60192264574
 20
-318.7253833024769
 30
0.0
  0
SPLINE
  5
1A4
330
1F
100
AcDbEntity
  8
0
  6
Continuous
 62
     7
370
    25
100
AcDbSpline
210
0.0
220
0.0
230
1.0
 70
     8
 71
     3
 72
    22
 73
    18
 74
     0
 42
0.00000001
 43
0.00000001
 40
0.0
 40
0.0
 40
0.0
 40
0.0
 40
0.0539756670409801
 40
0.1242456253397227
 40
0.1944802872034916
 40
0.2646821582364735
 40
0.3348546865620871
 40
0.4050018343781678
 40
0.4751277245529417
 40
0.5452363755615058
 40
0.6153315218787733
 40
0.6854165076602665
 40
0.7554942378024065
 40
0.82556717043675
 40
0.8956373369159303
 40
0.9657063781693902
 40
1.0
 40
1.0
 40
1.0
 40
1.0
 10
981.7044893061734
 20
-354.572288708084
 30
0.0
 10
982.4717663254635
 20
-355.5968920577042
 30
0.0
 10
984.2379476122667
 20
-357.9554082350418
 30
0.0
 10
986.7766121705256
 20
-361.9334134521317
 30
0.0
 10
989.3534985121977
 20
-366.4488200614695
 30
0.0
 10
991.7230091860212
 20
-371.1982741929405
 30
0.0
 10
993.8895190297908
 20
-376.1648838607164
 30
0.0
 10
995.8478989233628
 20
-381.3441390971003
 30
0.0
 10
997.5959067121357
 20
-386.7278537568486
 30
0.0
 10
999.1308779586001
 20
-392.3084569450031
 30
0.0
 10
1000.450589973696
 20
-398.077858409887
 30
0.0
 10
1001.553144448021
 20
-404.0276955836832
 30
0.0
 10
1002.436617541816
 20
-410.1494963604499
 30
0.0
 10
1003.100626495237
 20
-416.4338176491773
 30
0.0
 10
1003.540463595467
 20
-422.8735823535017
 30
0.0
 10
1003.730137329513
 20
-428.332132350767
 30
0.0
 10
1003.746528663755
 20
-431.6562144287265
 30
0.0
 10
1003.751914864156
 20
-432.7485094157145
 30
0.0
  0
SPLINE
  5
1A5
330
1F
100
AcDbEntity
  8
0
  6
Continuous
 62
     7
370
    25
100
AcDbSpline
210
0.0
220
0.0
230
1.0
 70
     8
 71
     3
 72
    64
 73
    60
 74
     0
 42
0.00000001
 43
0.00000001
 40
0.0
 40
0.0
 40
0.0
 40
0.0
 40
0.0094274192786376
 40
0.0273504905968339
 40
0.0452749215077708
 40
0.0631999387143571
 40
0.0811256467689923
 40
0.0990521116829659
 40
0.116979368304225
 40
0.134907426626942
 40
0.1528362770245058
 40
0.1707658945363584
 40
0.1886962423412394
 40
0.2066272745423283
 40
0.2245589383780271
 40
0.2424911759585004
 40
0.2604239256142897
 40
0.2783571229302547
 40
0.2962907015265592
 40
0.3142245936381931
 40
0.3321587305360496
 40
0.3500930428255427
 40
0.3680274606531114
 40
0.3859619138466578
 40
0.4038963203010249
 40
0.421830597732794
 40
0.4397646755643522
 40
0.4576984832702752
 40
0.4756319505189194
 40
0.4935650073830173
 40
0.511497584644257
 40
0.5294296142228515
 40
0.5473610297688463
 40
0.5652917674591722
 40
0.5832217670532799
 40
0.6011509732705471
 40
0.6190793375646926
 40
0.6370068203838491
 40
0.6549333940191973
 40
0.672859046159193
 40
0.6907837842787538
 40
0.7087076410002607
 40
0.7266306805616517
 40
0.7445530065095003
 40
0.7624747706923387
 40
0.7803961835485447
 40
0.798317493336433
 40
0.816238965337741
 40
0.8341610245187521
 40
0.8520841983710924
 40
0.8700091267719816
 40
0.8879365677222563
 40
0.9058673961021639
 40
0.9238025918634507
 40
0.941743213554324
 40
0.9596903530652287
 40
0.9776450684056386
 40
0.9956082936366079
 40
1.0
 40
1.0
 40
1.0
 40
1.0
 10
1003.751914864156
 20
-432.7485094157145
 30
0.0
 10
1003.74572284396
 20
-433.9293662341988
 30
0.0
 10
1003.727758777112
 20
-437.3552256720349
 30
0.0
 10
1003.528077523335
 20
-443.1225344074808
 30
0.0
 10
1003.079926309849
 20
-450.0801161920422
 30
0.0
 10
1002.407061085441
 20
-457.144131578926
 30
0.0
 10
1001.514225766739
 20
-464.3017839263268
 30
0.0
 10
1000.401635032933
 20
-471.5431559156872
 30
0.0
 10
999.0711324186534
 20
-478.85742109149
 30
0.0
 10
997.5245398878315
 20
-486.2338489633929
 30
0.0
 10
995.7640968236517
 20
-493.6615576266982
 30
0.0
 10
993.7923383004675
 20
-501.1296019084954
 30
0.0
 10
991.6121228616942
 20
-508.6269714881237
 30
0.0
 10
989.2266195508412
 20
-516.1426130185564
 30
0.0
 10
986.6393052283867
 20
-523.6654456903177
 30
0.0
 10
983.8539585406727
 20
-531.1843784246356
 30
0.0
 10
980.8746542275476
 20
-538.6883264994524
 30
0.0
 10
977.7057568080744
 20
-546.1662281925674
 30
0.0
 10
974.3519139244062
 20
-553.6070612789013
 30
0.0
 10
970.8180492881082
 20
-560.9998594168472
 30
0.0
 10
967.1093552608436
 20
-568.3337284034218
 30
0.0
 10
963.2312850761997
 20
-575.597862290814
 30
0.0
 10
959.1895447151835
 20
-582.7815593516684
 30
0.0
 10
954.9900853594306
 20
-589.874236337171
 30
0.0
 10
950.6390947893561
 20
-596.8654442177622
 30
0.0
 10
946.1429874522131
 20
-603.744885288035
 30
0.0
 10
941.5083939595163
 20
-610.5024298833822
 30
0.0
 10
936.7421511896349
 20
-617.1281312728618
 30
0.0
 10
931.8512932364553
 20
-623.6122389087934
 30
0.0
 10
926.8430411256528
 20
-629.9452129568775
 30
0.0
 10
921.7247922551627
 20
-636.1177385665833
 30
0.0
 10
916.504109565252
 20
-642.1207398679406
 30
0.0
 10
911.1887104414993
 20
-647.9453936813874
 30
0.0
 10
905.7864553516056
 20
-653.5831429271982
 30
0.0
 10
900.3053362139641
 20
-659.0257097205503
 30
0.0
 10
894.7534644922723
 20
-664.2651081371594
 30
0.0
 10
889.1390590061615
 20
-669.2936566323845
 30
0.0
 10
883.4704334428587
 20
-674.1039900933757
 30
0.0
 10
877.7559835494474
 20
-678.6890714987362
 30
0.0
 10
872.0041739795873
 20
-683.0422031527572
 30
0.0
 10
866.2235247631883
 20
-687.157037450761
 30
0.0
 10
860.4225973631472
 20
-691.0275871181206
 30
0.0
 10
854.6099802818679
 20
-694.6482348458413
 30
0.0
 10
848.7942741813678
 20
-698.0137422252661
 30
0.0
 10
842.984076496366
 20
-701.1192578420771
 30
0.0
 10
837.187968991506
 20
-703.9603227030489
 30
0.0
 10
831.4145083450486
 20
-706.5328738175292
 30
0.0
 10
825.6722019011049
 20
-708.8332545357011
 30
0.0
 10
819.9694877932391
 20
-710.8582179320279
 30
0.0
 10
814.3147092291164
 20
-712.6049340031568
 30
0.0
 10
808.7161123817932
 20
-714.0709679572437
 30
0.0
 10
803.1818024118022
 20
-715.2543418064326
 30
0.0
 10
797.7198329721065
 20
-716.1532859520348
 30
0.0
 10
792.3378060217101
 20
-716.7671367572068
 30
0.0
 10
787.0443130382754
 20
-717.0929457585296
 30
0.0
 10
781.8435189479144
 20
-717.1380941146382
 30
0.0
 10
776.7553742964177
 20
-716.8731413813141
 30
0.0
 10
773.0040168137791
 20
-716.5251224675148
 30
0.0
 10
770.990114972328
 20
-716.1751518714317
 30
0.0
 10
770.5944767439122
 20
-716.1063988946073
 30
0.0
  0
SPLINE
  5
1A6
330
1F
100
AcDbEntity
  8
0
  6
Continuous
 62
     7
370
    25
100
AcDbSpline
210
0.0
220
0.0
230
1.0
 70
     8
 71
     3
 72
    77
 73
    73
 74
     0
 42
0.00000001
 43
0.00000001
 40
0.0
 40
0.0
 40
0.0
 40
0.0
 40
0.0095923880585373
 40
0.0241318070691391
 40
0.0386639259182922
 40
0.0531892648933686
 40
0.0677085385755531
 40
0.0822225672879663
 40
0.0967322041078834
 40
0.1112382801635966
 40
0.1257415675993126
 40
0.1402427576805185
 40
0.1547424507456801
 40
0.1692411547070357
 40
0.1837392892197266
 40
0.1982371932227172
 40
0.2127350789589284
 40
0.2272331448361667
 40
0.2417315607152968
 40
0.2562304499435567
 40
0.27072989745293
 40
0.285229956852517
 40
0.2997306565018596
 40
0.3142320046215817
 40
0.3287339935324196
 40
0.3432366031281447
 40
0.3577398036895863
 40
0.3722435581413117
 40
0.3867478238430961
 40
0.4012525539972048
 40
0.415757698741376
 40
0.4302632059869149
 40
0.444769022051788
 40
0.4592750921304804
 40
0.4737813606354641
 40
0.4882877714393862
 40
0.5027942680426083
 40
0.5173007936871103
 40
0.531807282107359
 40
0.5463136666026525
 40
0.5608198900853401
 40
0.5753258955092773
 40
0.5898316259840017
 40
0.604337024944568
 40
0.618842036397245
 40
0.6333466052661023
 40
0.6478506778701594
 40
0.6623542025666825
 40
0.6768571306032533
 40
0.6913594172297005
 40
0.7058610231306426
 40
0.7203619162502642
 40
0.734862074092501
 40
0.7493614865911598
 40
0.763860159654589
 40
0.7783581194955633
 40
0.7928554178558469
 40
0.8073521382209672
 40
0.8218484030864572
 40
0.8363443822715882
 40
0.8508402768227024
 40
0.8653363002478054
 40
0.8798327956879765
 40
0.8943301891442128
 40
0.9088289974711783
 40
0.9233298330520331
 40
0.9378334028455348
 40
0.9523404989126777
 40
0.9668519771057684
 40
0.9813687205915236
 40
0.9958915856185314
 40
1.0
 40
1.0
 40
1.0
 40
1.0
 10
748.8554695013297
 20
-702.3114210691651
 30
0.0
 10
748.1973876411587
 20
-701.4301713801194
 30
0.0
 10
746.5418348853239
 20
-699.2131898166114
 30
0.0
 10
744.1075905867817
 20
-695.3846808041861
 30
0.0
 10
741.531116627193
 20
-690.8689274724684
 30
0.0
 10
739.1634576379118
 20
-686.117391855397
 30
0.0
 10
736.9984456071209
 20
-681.1492330040622
 30
0.0
 10
735.0416875101984
 20
-675.9683563890082
 30
0.0
 10
733.2952936522863
 20
-670.5831135319
 30
0.0
 10
731.7619658170576
 20
-665.0010311877037
 30
0.0
 10
730.4438964695872
 20
-659.2302241547471
 30
0.0
 10
729.3430545357597
 20
-653.2790141797929
 30
0.0
 10
728.461098352683
 20
-647.1560251145012
 30
0.0
 10
727.7993882799982
 20
-640.8701466252116
 30
0.0
 10
727.3589733177139
 20
-634.4305298240407
 30
0.0
 10
727.140586234963
 20
-627.8465800938866
 30
0.0
 10
727.1446362355663
 20
-621.127936139398
 30
0.0
 10
727.3712049321452
 20
-614.2844500234462
 30
0.0
 10
727.8200449937875
 20
-607.3261615552926
 30
0.0
 10
728.4905793889438
 20
-600.2632886379577
 30
0.0
 10
729.381900710098
 20
-593.1062142094967
 30
0.0
 10
730.4927715028181
 20
-585.8654688836048
 30
0.0
 10
731.821625485569
 20
-578.5517135553368
 30
0.0
 10
733.3665695630856
 20
-571.1757220334091
 30
0.0
 10
735.1253865479284
 20
-563.7483637360222
 30
0.0
 10
737.0955385186725
 20
-556.2805864702474
 30
0.0
 10
739.2741707557662
 20
-548.7833993049462
 30
0.0
 10
741.6581162072417
 20
-541.267855541575
 30
0.0
 10
744.2439004457502
 20
-533.745035784759
 30
0.0
 10
747.0277470859471
 20
-526.2260311140641
 30
0.0
 10
750.0055836371411
 20
-518.7219263591852
 30
0.0
 10
753.1730477706615
 20
-511.2437834822272
 30
0.0
 10
756.5254939847433
 20
-503.8026250725148
 30
0.0
 10
760.0580006521817
 20
-496.4094179611795
 30
0.0
 10
763.765377437708
 20
-489.0750569644816
 30
0.0
 10
767.6421730732432
 20
-481.8103487662836
 30
0.0
 10
771.6826834798511
 20
-474.6259959515313
 30
0.0
 10
775.8809593262438
 20
-467.5325827233719
 30
0.0
 10
780.2308146018817
 20
-460.5405592096392
 30
0.0
 10
784.7258365582293
 20
-453.6602243318588
 30
0.0
 10
789.3593961927354
 20
-446.9017091085098
 30
0.0
 10
794.1246581748397
 20
-440.2749617148755
 30
0.0
 10
799.0145898808643
 20
-433.7897342551107
 30
0.0
 10
804.0219716756066
 20
-427.4555682301918
 30
0.0
 10
809.139407469781
 20
-421.2817802654882
 30
0.0
 10
814.3593355478934
 20
-415.2774481118249
 30
0.0
 10
819.6740396632256
 20
-409.45139693339
 30
0.0
 10
825.0756603989838
 20
-403.8121858959546
 30
0.0
 10
830.5562067976609
 20
-398.3680950693466
 30
0.0
 10
836.1075682642946
 20
-393.1271126592334
 30
0.0
 10
841.7215267536158
 20
-388.096922585293
 30
0.0
 10
847.3897692560275
 20
-383.2848924261716
 30
0.0
 10
853.1039006028141
 20
-378.6980617566948
 30
0.0
 10
858.8554566166467
 20
-374.343130910267
 30
0.0
 10
864.635917638955
 20
-370.2264502095958
 30
0.0
 10
870.4367224696598
 20
-366.3540097239383
 30
0.0
 10
876.2492827579186
 20
-362.7314296264751
 30
0.0
 10
882.0649978750114
 20
-359.3639512615625
 30
0.0
 10
887.8752703091654
 20
-356.2564290147235
 30
0.0
 10
893.6715181546427
 20
-353.4133249408519
 30
0.0
 10
899.4451845240808
 20
-350.8387048675438
 30
0.0
 10
905.1877612485422
 20
-348.5362295071622
 30
0.0
 10
910.8908109626459
 20
-346.5091454483072
 30
0.0
 10
916.5459843915157
 20
-344.7602989170587
 30
0.0
 10
922.1450544606327
 20
-343.2920789761259
 30
0.0
 10
927.6798405772322
 20
-342.1066490359443
 30
0.0
 10
933.1425659927797
 20
-341.2051010500567
 30
0.0
 10
938.524589827933
 20
-340.5906427951244
 30
0.0
 10
943.8211940673835
 20
-340.2567377779572
 30
0.0
 10
949.0137447112553
 20
-340.2314349720772
 30
0.0
 10
952.911052095619
 20
-340.3687204920735
 30
0.0
 10
955.0373290260751
 20
-340.60759296811
 30
0.0
 10
955.5061978851883
 20
-340.6602671347289
 30
0.0
  0
SPLINE
  5
1A7
330
1F
100
AcDbEntity
  8
0
  6
Continuous
 62
     7
370
    25
100
AcDbSpline
210
0.0
220
0.0
230
1.0
 70
     8
 71
     3
 72
    13
 73
     9
 74
     0
 42
0.00000001
 43
0.00000001
 40
0.0
 40
0.0
 40
0.0
 40
0.0
 40
0.0884811926552498
 40
0.3131877944236825
 40
0.5300342937928445
 40
0.7392297751212334
 40
0.9449828409041551
 40
1.0
 40
1.0
 40
1.0
 40
1.0
 10
987.4562381376477
 20
-584.1726146243706
 30
0.0
 10
987.5780469774784
 20
-584.2435070071756
 30
0.0
 10
988.0092012232908
 20
-584.4944374969881
 30
0.0
 10
988.5840928459223
 20
-585.201675781615
 30
0.0
 10
989.1628557868427
 20
-586.2894715372103
 30
0.0
 10
989.5296360127624
 20
-587.6097606818017
 30
0.0
 10
989.6573068457384
 20
-588.7399861986312
 30
0.0
 10
989.664770406504
 20
-589.4135710955493
 30
0.0
 10
989.6663450644629
 20
-589.5556836678552
 30
0.0
  0
SPLINE
  5
1A8
330
1F
100
AcDbEntity
  8
0
  6
Continuous
 62
     7
370
    25
100
AcDbSpline
210
0.0
220
0.0
230
1.0
 70
     8
 71
     3
 72
    23
 73
    19
 74
     0
 42
0.00000001
 43
0.00000001
 40
0.0
 40
0.0
 40
0.0
 40
0.0
 40
0.033589418317393
 40
0.0980090686472627
 40
0.1626136377275711
 40
0.2273772989805811
 40
0.292270704417917
 40
0.3572397387519154
 40
0.4222220655242527
 40
0.4871348730787495
 40
0.5519085973445662
 40
0.6164811775628543
 40
0.6808078259985015
 40
0.7448964574291639
 40
0.8088825689857984
 40
0.8730223831884376
 40
0.9380494480027759
 40
1.0
 40
1.0
 40
1.0
 40
1.0
 10
989.6663450644629
 20
-589.5556836678552
 30
0.0
 10
989.6606182536688
 20
-589.8374144806355
 30
0.0
 10
989.6439082473522
 20
-590.6594642794423
 30
0.0
 10
989.4553032753827
 20
-592.120574047024
 30
0.0
 10
989.030680392545
 20
-593.9306589876192
 30
0.0
 10
988.3997725594398
 20
-595.7784470471257
 30
0.0
 10
987.5798318065143
 20
-597.6145229271905
 30
0.0
 10
986.5891799690143
 20
-599.3933379628947
 30
0.0
 10
985.4526693201419
 20
-601.0697094999927
 30
0.0
 10
984.1994647228933
 20
-602.601530570972
 30
0.0
 10
982.8627341475676
 20
-603.9508124272832
 30
0.0
 10
981.4786633669916
 20
-605.0851021282298
 30
0.0
 10
980.0854835721783
 20
-605.9789366537907
 30
0.0
 10
978.7224884127544
 20
-606.6145709654159
 30
0.0
 10
977.426841508743
 20
-606.9859304237883
 30
0.0
 10
976.2349316724972
 20
-607.0889765393633
 30
0.0
 10
975.1800556229198
 20
-606.9622783364998
 30
0.0
 10
974.5997162176266
 20
-606.6821157314714
 30
0.0
 10
974.3165769730383
 20
-606.5454284281002
 30
0.0
  0
SPLINE
  5
1A9
330
1F
100
AcDbEntity
  8
0
  6
Continuous
 62
     7
370
    25
100
AcDbSpline
210
0.0
220
0.0
230
1.0
 70
     8
 71
     3
 72
    13
 73
     9
 74
     0
 42
0.00000001
 43
0.00000001
 40
0.0
 40
0.0
 40
0.0
 40
0.0
 40
0.0884811926553007
 40
0.3131877944237628
 40
0.5300342937929424
 40
0.7392297751213138
 40
0.9449828409042776
 40
1.0
 40
1.0
 40
1.0
 40
1.0
 10
1026.926219865492
 20
-493.1740662314886
 30
0.0
 10
1027.048028705322
 20
-493.2449586142939
 30
0.0
 10
1027.479182951135
 20
-493.4958891041065
 30
0.0
 10
1028.054074573766
 20
-494.2031273887334
 30
0.0
 10
1028.632837514687
 20
-495.2909231443289
 30
0.0
 10
1028.999617740606
 20
-496.6112122889206
 30
0.0
 10
1029.127288573582
 20
-497.7414378057497
 30
0.0
 10
1029.134752134348
 20
-498.4150227026676
 30
0.0
 10
1029.136326792307
 20
-498.5571352749732
 30
0.0
  0
SPLINE
  5
1AA
330
1F
100
AcDbEntity
  8
0
  6
Continuous
 62
     7
370
    25
100
AcDbSpline
210
0.0
220
0.0
230
1.0
 70
     8
 71
     3
 72
    23
 73
    19
 74
     0
 42
0.00000001
 43
0.00000001
 40
0.0
 40
0.0
 40
0.0
 40
0.0
 40
0.0335894183173928
 40
0.0980090686472836
 40
0.1626136377275915
 40
0.2273772989805987
 40
0.2922707044179312
 40
0.3572397387519324
 40
0.4222220655242652
 40
0.4871348730787553
 40
0.55190859734458
 40
0.6164811775628602
 40
0.6808078259985115
 40
0.7448964574291758
 40
0.8088825689858127
 40
0.8730223831884455
 40
0.9380494480027864
 40
1.0
 40
1.0
 40
1.0
 40
1.0
 10
1029.136326792307
 20
-498.5571352749732
 30
0.0
 10
1029.130599981512
 20
-498.8388660877537
 30
0.0
 10
1029.113889975196
 20
-499.6609158865605
 30
0.0
 10
1028.925285003226
 20
-501.1220256541424
 30
0.0
 10
1028.500662120389
 20
-502.9321105947378
 30
0.0
 10
1027.869754287283
 20
-504.7798986542442
 30
0.0
 10
1027.049813534358
 20
-506.6159745343092
 30
0.0
 10
1026.059161696857
 20
-508.3947895700132
 30
0.0
 10
1024.922651047985
 20
-510.071161107111
 30
0.0
 10
1023.669446450737
 20
-511.6029821780902
 30
0.0
 10
1022.332715875411
 20
-512.9522640344014
 30
0.0
 10
1020.948645094835
 20
-514.0865537353479
 30
0.0
 10
1019.555465300022
 20
-514.9803882609089
 30
0.0
 10
1018.192470140598
 20
-515.616022572534
 30
0.0
 10
1016.896823236586
 20
-515.9873820309065
 30
0.0
 10
1015.70491340034
 20
-516.0904281464814
 30
0.0
 10
1014.650037350763
 20
-515.9637299436179
 30
0.0
 10
1014.06969794547
 20
-515.6835673385896
 30
0.0
 10
1013.786558700882
 20
-515.5468800352182
 30
0.0
  0
SPLINE
  5
1AB
330
1F
100
AcDbEntity
  8
0
  6
Continuous
 62
     7
370
    25
100
AcDbSpline
210
0.0
220
0.0
230
1.0
 70
     8
 71
     3
 72
    13
 73
     9
 74
     0
 42
0.00000001
 43
0.00000001
 40
0.0
 40
0.0
 40
0.0
 40
0.0
 40
0.0884811926552489
 40
0.3131877944236929
 40
0.5300342937928717
 40
0.7392297751212329
 40
0.9449828409041579
 40
1.0
 40
1.0
 40
1.0
 40
1.0
 10
928.3852360314596
 20
-663.8520563589154
 30
0.0
 10
928.5070448712903
 20
-663.9229487417206
 30
0.0
 10
928.9381991171027
 20
-664.1738792315331
 30
0.0
 10
929.5130907397343
 20
-664.88111751616
 30
0.0
 10
930.0918536806547
 20
-665.9689132717552
 30
0.0
 10
930.4586339065743
 20
-667.2892024163467
 30
0.0
 10
930.5863047395504
 20
-668.4194279331759
 30
0.0
 10
930.5937683003159
 20
-669.0930128300942
 30
0.0
 10
930.5953429582748
 20
-669.2351254024001
 30
0.0
  0
SPLINE
  5
1AC
330
1F
100
AcDbEntity
  8
0
  6
Continuous
 62
     7
370
    25
100
AcDbSpline
210
0.0
220
0.0
230
1.0
 70
     8
 71
     3
 72
    23
 73
    19
 74
     0
 42
0.00000001
 43
0.00000001
 40
0.0
 40
0.0
 40
0.0
 40
0.0
 40
0.033589418317393
 40
0.0980090686472628
 40
0.162613637727571
 40
0.2273772989805837
 40
0.2922707044179075
 40
0.3572397387519053
 40
0.4222220655242466
 40
0.4871348730787399
 40
0.5519085973445519
 40
0.6164811775628383
 40
0.6808078259985015
 40
0.7448964574291633
 40
0.8088825689857956
 40
0.8730223831884407
 40
0.9380494480027721
 40
1.0
 40
1.0
 40
1.0
 40
1.0
 10
930.5953429582748
 20
-669.2351254024001
 30
0.0
 10
930.5896161474808
 20
-669.5168562151805
 30
0.0
 10
930.5729061411643
 20
-670.3389060139872
 30
0.0
 10
930.3843011691946
 20
-671.8000157815688
 30
0.0
 10
929.959678286357
 20
-673.610100722164
 30
0.0
 10
929.3287704532518
 20
-675.4578887816704
 30
0.0
 10
928.5088297003264
 20
-677.2939646617353
 30
0.0
 10
927.5181778628264
 20
-679.0727796974393
 30
0.0
 10
926.3816672139541
 20
-680.7491512345373
 30
0.0
 10
925.1284626167053
 20
-682.2809723055166
 30
0.0
 10
923.7917320413799
 20
-683.6302541618278
 30
0.0
 10
922.4076612608036
 20
-684.7645438627743
 30
0.0
 10
921.0144814659903
 20
-685.6583783883354
 30
0.0
 10
919.6514863065663
 20
-686.2940126999607
 30
0.0
 10
918.3558394025549
 20
-686.6653721583332
 30
0.0
 10
917.1639295663091
 20
-686.7684182739082
 30
0.0
 10
916.1090535167317
 20
-686.6417200710446
 30
0.0
 10
915.5287141114386
 20
-686.3615574660164
 30
0.0
 10
915.2455748668502
 20
-686.2248701626451
 30
0.0
  0
SPLINE
  5
1AD
330
1F
100
AcDbEntity
  8
0
  6
Continuous
 62
     7
370
    25
100
AcDbSpline
210
0.0
220
0.0
230
1.0
 70
     8
 71
     3
 72
    13
 73
     9
 74
     0
 42
0.00000001
 43
0.00000001
 40
0.0
 40
0.0
 40
0.0
 40
0.0
 40
0.0884811926553124
 40
0.3131877944237514
 40
0.530034293792916
 40
0.739229775121254
 40
0.944982840904184
 40
1.0
 40
1.0
 40
1.0
 40
1.0
 10
1040.786234293202
 20
-404.7101152691906
 30
0.0
 10
1040.908043133032
 20
-404.7810076519957
 30
0.0
 10
1041.339197378845
 20
-405.0319381418083
 30
0.0
 10
1041.914089001476
 20
-405.7391764264353
 30
0.0
 10
1042.492851942397
 20
-406.8269721820305
 30
0.0
 10
1042.859632168316
 20
-408.1472613266221
 30
0.0
 10
1042.987303001292
 20
-409.2774868434512
 30
0.0
 10
1042.994766562058
 20
-409.9510717403693
 30
0.0
 10
1042.996341220017
 20
-410.0931843126751
 30
0.0
  0
SPLINE
  5
1AE
330
1F
100
AcDbEntity
  8
0
  6
Continuous
 62
     7
370
    25
100
AcDbSpline
210
0.0
220
0.0
230
1.0
 70
     8
 71
     3
 72
    23
 73
    19
 74
     0
 42
0.00000001
 43
0.00000001
 40
0.0
 40
0.0
 40
0.0
 40
0.0
 40
0.0335894183173928
 40
0.0980090686472838
 40
0.1626136377275914
 40
0.2273772989805979
 40
0.2922707044179376
 40
0.3572397387519303
 40
0.4222220655242668
 40
0.4871348730787649
 40
0.5519085973445844
 40
0.6164811775628654
 40
0.6808078259985185
 40
0.744896457429182
 40
0.8088825689858199
 40
0.8730223831884548
 40
0.938049448002792
 40
1.0
 40
1.0
 40
1.0
 40
1.0
 10
1042.996341220017
 20
-410.0931843126751
 30
0.0
 10
1042.990614409223
 20
-410.3749151254555
 30
0.0
 10
1042.973904402906
 20
-411.1969649242625
 30
0.0
 10
1042.785299430937
 20
-412.6580746918443
 30
0.0
 10
1042.360676548099
 20
-414.4681596324396
 30
0.0
 10
1041.729768714993
 20
-416.3159476919462
 30
0.0
 10
1040.909827962068
 20
-418.152023572011
 30
0.0
 10
1039.919176124568
 20
-419.9308386077152
 30
0.0
 10
1038.782665475695
 20
-421.607210144813
 30
0.0
 10
1037.529460878447
 20
-423.1390312157922
 30
0.0
 10
1036.192730303121
 20
-424.4883130721034
 30
0.0
 10
1034.808659522545
 20
-425.6226027730499
 30
0.0
 10
1033.415479727732
 20
-426.5164372986108
 30
0.0
 10
1032.052484568308
 20
-427.1520716102361
 30
0.0
 10
1030.756837664297
 20
-427.5234310686084
 30
0.0
 10
1029.56492782805
 20
-427.6264771841833
 30
0.0
 10
1028.510051778473
 20
-427.4997789813198
 30
0.0
 10
1027.92971237318
 20
-427.2196163762914
 30
0.0
 10
1027.646573128592
 20
-427.0829290729201
 30
0.0
  0
SPLINE
  5
1AF
330
1F
100
AcDbEntity
  8
0
  6
Continuous
 62
     7
370
    25
100
AcDbSpline
210
0.0
220
0.0
230
1.0
 70
     8
 71
     3
 72
    13
 73
     9
 74
     0
 42
0.00000001
 43
0.00000001
 40
0.0
 40
0.0
 40
0.0
 40
0.0
 40
0.0884811926552476
 40
0.3131877944236819
 40
0.5300342937928455
 40
0.739229775121233
 40
0.9449828409041444
 40
1.0
 40
1.0
 40
1.0
 40
1.0
 10
858.7062381376267
 20
-720.0819187269767
 30
0.0
 10
858.8280469774573
 20
-720.1528111097817
 30
0.0
 10
859.2592012232697
 20
-720.4037415995944
 30
0.0
 10
859.8340928459013
 20
-721.110979884221
 30
0.0
 10
860.4128557868218
 20
-722.1987756398165
 30
0.0
 10
860.7796360127413
 20
-723.5190647844079
 30
0.0
 10
860.9073068457175
 20
-724.6492903012371
 30
0.0
 10
860.9147704064831
 20
-725.3228751981555
 30
0.0
 10
860.9163450644419
 20
-725.4649877704613
 30
0.0
  0
SPLINE
  5
1B0
330
1F
100
AcDbEntity
  8
0
  6
Continuous
 62
     7
370
    25
100
AcDbSpline
210
0.0
220
0.0
230
1.0
 70
     8
 71
     3
 72
    23
 73
    19
 74
     0
 42
0.00000001
 43
0.00000001
 40
0.0
 40
0.0
 40
0.0
 40
0.0
 40
0.0335894183173939
 40
0.0980090686472691
 40
0.1626136377275757
 40
0.2273772989805879
 40
0.2922707044179113
 40
0.3572397387519122
 40
0.4222220655242545
 40
0.4871348730787472
 40
0.5519085973445663
 40
0.6164811775628372
 40
0.6808078259984964
 40
0.7448964574291645
 40
0.8088825689858046
 40
0.8730223831884325
 40
0.9380494480027849
 40
1.0
 40
1.0
 40
1.0
 40
1.0
 10
860.9163450644419
 20
-725.4649877704613
 30
0.0
 10
860.9106182536478
 20
-725.7467185832418
 30
0.0
 10
860.8939082473314
 20
-726.5687683820486
 30
0.0
 10
860.7053032753616
 20
-728.0298781496303
 30
0.0
 10
860.280680392524
 20
-729.8399630902255
 30
0.0
 10
859.6497725594189
 20
-731.6877511497319
 30
0.0
 10
858.8298318064933
 20
-733.5238270297968
 30
0.0
 10
857.8391799689933
 20
-735.3026420655007
 30
0.0
 10
856.7026693201211
 20
-736.9790136025989
 30
0.0
 10
855.4494647228722
 20
-738.5108346735781
 30
0.0
 10
854.1127341475467
 20
-739.8601165298892
 30
0.0
 10
852.7286633669706
 20
-740.9944062308358
 30
0.0
 10
851.3354835721574
 20
-741.8882407563966
 30
0.0
 10
849.9724884127335
 20
-742.5238750680221
 30
0.0
 10
848.6768415087221
 20
-742.8952345263943
 30
0.0
 10
847.484931672476
 20
-742.9982806419695
 30
0.0
 10
846.4300556228987
 20
-742.8715824391059
 30
0.0
 10
845.8497162176055
 20
-742.5914198340777
 30
0.0
 10
845.5665769730173
 20
-742.4547325307063
 30
0.0
  0
SPLINE
  5
1B1
330
1F
100
AcDbEntity
  8
0
  6
Continuous
 62
     7
370
    25
100
AcDbSpline
210
0.0
220
0.0
230
1.0
 70
     8
 71
     3
 72
    13
 73
     9
 74
     0
 42
0.00000001
 43
0.00000001
 40
0.0
 40
0.0
 40
0.0
 40
0.0
 40
0.0884811926552401
 40
0.3131877944236831
 40
0.5300342937928385
 40
0.7392297751212397
 40
0.9449828409041588
 40
1.0
 40
1.0
 40
1.0
 40
1.0
 10
1026.926219865503
 20
-332.2485963437737
 30
0.0
 10
1027.048028705334
 20
-332.3194887265788
 30
0.0
 10
1027.479182951146
 20
-332.5704192163913
 30
0.0
 10
1028.054074573778
 20
-333.2776575010181
 30
0.0
 10
1028.632837514698
 20
-334.3654532566135
 30
0.0
 10
1028.999617740618
 20
-335.6857424012049
 30
0.0
 10
1029.127288573594
 20
-336.8159679180343
 30
0.0
 10
1029.13475213436
 20
-337.4895528149525
 30
0.0
 10
1029.136326792319
 20
-337.6316653872584
 30
0.0
  0
SPLINE
  5
1B2
330
1F
100
AcDbEntity
  8
0
  6
Continuous
 62
     7
370
    25
100
AcDbSpline
210
0.0
220
0.0
230
1.0
 70
     8
 71
     3
 72
    23
 73
    19
 74
     0
 42
0.00000001
 43
0.00000001
 40
0.0
 40
0.0
 40
0.0
 40
0.0
 40
0.0335894183173928
 40
0.0980090686472835
 40
0.162613637727591
 40
0.2273772989805978
 40
0.2922707044179301
 40
0.3572397387519307
 40
0.4222220655242654
 40
0.4871348730787564
 40
0.5519085973445782
 40
0.6164811775628574
 40
0.6808078259985131
 40
0.7448964574291728
 40
0.8088825689858075
 40
0.8730223831884475
 40
0.9380494480027832
 40
1.0
 40
1.0
 40
1.0
 40
1.0
 10
1029.136326792319
 20
-337.6316653872584
 30
0.0
 10
1029.130599981524
 20
-337.9133962000388
 30
0.0
 10
1029.113889975208
 20
-338.7354459988456
 30
0.0
 10
1028.925285003238
 20
-340.1965557664276
 30
0.0
 10
1028.5006621204
 20
-342.0066407070228
 30
0.0
 10
1027.869754287295
 20
-343.8544287665294
 30
0.0
 10
1027.04981353437
 20
-345.6905046465942
 30
0.0
 10
1026.05916169687
 20
-347.4693196822983
 30
0.0
 10
1024.922651047997
 20
-349.1456912193963
 30
0.0
 10
1023.669446450749
 20
-350.6775122903754
 30
0.0
 10
1022.332715875423
 20
-352.0267941466866
 30
0.0
 10
1020.948645094847
 20
-353.1610838476331
 30
0.0
 10
1019.555465300034
 20
-354.054918373194
 30
0.0
 10
1018.19247014061
 20
-354.6905526848192
 30
0.0
 10
1016.896823236598
 20
-355.0619121431916
 30
0.0
 10
1015.704913400353
 20
-355.1649582587666
 30
0.0
 10
1014.650037350775
 20
-355.038260055903
 30
0.0
 10
1014.069697945482
 20
-354.7580974508747
 30
0.0
 10
1013.786558700894
 20
-354.6214101475034
 30
0.0
  0
SPLINE
  5
1B3
330
1F
100
AcDbEntity
  8
0
  6
Continuous
 62
     7
370
    25
100
AcDbSpline
210
0.0
220
0.0
230
1.0
 70
     8
 71
     3
 72
    13
 73
     9
 74
     0
 42
0.00000001
 43
0.00000001
 40
0.0
 40
0.0
 40
0.0
 40
0.0
 40
0.0884811926552508
 40
0.3131877944236943
 40
0.5300342937928726
 40
0.7392297751212333
 40
0.9449828409041581
 40
1.0
 40
1.0
 40
1.0
 40
1.0
 10
789.0272402437961
 20
-744.3017149079886
 30
0.0
 10
789.1490490836268
 20
-744.3726072907939
 30
0.0
 10
789.5802033294392
 20
-744.6235377806065
 30
0.0
 10
790.1550949520708
 20
-745.3307760652332
 30
0.0
 10
790.7338578929912
 20
-746.4185718208286
 30
0.0
 10
791.1006381189108
 20
-747.73886096542
 30
0.0
 10
791.228308951887
 20
-748.8690864822494
 30
0.0
 10
791.2357725126525
 20
-749.5426713791675
 30
0.0
 10
791.2373471706114
 20
-749.6847839514734
 30
0.0
  0
SPLINE
  5
1B4
330
1F
100
AcDbEntity
  8
0
  6
Continuous
 62
     7
370
    25
100
AcDbSpline
210
0.0
220
0.0
230
1.0
 70
     8
 71
     3
 72
    23
 73
    19
 74
     0
 42
0.00000001
 43
0.00000001
 40
0.0
 40
0.0
 40
0.0
 40
0.0
 40
0.033589418317393
 40
0.0980090686472628
 40
0.162613637727571
 40
0.2273772989805837
 40
0.2922707044179076
 40
0.3572397387519054
 40
0.4222220655242467
 40
0.48713487307874
 40
0.551908597344552
 40
0.6164811775628384
 40
0.6808078259985016
 40
0.7448964574291635
 40
0.8088825689857957
 40
0.8730223831884409
 40
0.9380494480027723
 40
0.9999999999999999
 40
0.9999999999999999
 40
0.9999999999999999
 40
0.9999999999999999
 10
791.2373471706114
 20
-749.6847839514733
 30
0.0
 10
791.2316203598173
 20
-749.9665147642539
 30
0.0
 10
791.2149103535007
 20
-750.7885645630606
 30
0.0
 10
791.0263053815312
 20
-752.2496743306423
 30
0.0
 10
790.6016824986935
 20
-754.0597592712372
 30
0.0
 10
789.9707746655884
 20
-755.9075473307438
 30
0.0
 10
789.1508339126628
 20
-757.7436232108087
 30
0.0
 10
788.1601820751629
 20
-759.5224382465127
 30
0.0
 10
787.0236714262905
 20
-761.1988097836107
 30
0.0
 10
785.7704668290419
 20
-762.7306308545898
 30
0.0
 10
784.4337362537163
 20
-764.0799127109011
 30
0.0
 10
783.0496654731402
 20
-765.2142024118477
 30
0.0
 10
781.6564856783268
 20
-766.1080369374088
 30
0.0
 10
780.2934905189029
 20
-766.743671249034
 30
0.0
 10
778.9978436148914
 20
-767.1150307074066
 30
0.0
 10
777.8059337786456
 20
-767.2180768229816
 30
0.0
 10
776.7510577290682
 20
-767.0913786201181
 30
0.0
 10
776.1707183237751
 20
-766.8112160150897
 30
0.0
 10
775.8875790791867
 20
-766.6745287117185
 30
0.0
  0
SPLINE
  5
1B5
330
1F
100
AcDbEntity
  8
0
  6
Continuous
 62
     7
370
    25
100
AcDbSpline
210
0.0
220
0.0
230
1.0
 70
     8
 71
     3
 72
    13
 73
     9
 74
     0
 42
0.00000001
 43
0.00000001
 40
0.0
 40
0.0
 40
0.0
 40
0.0
 40
0.0884811926552498
 40
0.3131877944236825
 40
0.5300342937928445
 40
0.7392297751212334
 40
0.9449828409041551
 40
1.0
 40
1.0
 40
1.0
 40
1.0
 10
987.45623813767
 20
-286.8211188463281
 30
0.0
 10
987.5780469775007
 20
-286.8920112291332
 30
0.0
 10
988.0092012233131
 20
-287.1429417189458
 30
0.0
 10
988.5840928459445
 20
-287.8501800035725
 30
0.0
 10
989.162855786865
 20
-288.937975759168
 30
0.0
 10
989.5296360127845
 20
-290.2582649037593
 30
0.0
 10
989.6573068457606
 20
-291.3884904205888
 30
0.0
 10
989.6647704065263
 20
-292.0620753175069
 30
0.0
 10
989.6663450644851
 20
-292.2041878898128
 30
0.0
  0
SPLINE
  5
1B6
330
1F
100
AcDbEntity
  8
0
  6
Continuous
 62
     7
370
    25
100
AcDbSpline
210
0.0
220
0.0
230
1.0
 70
     8
 71
     3
 72
    23
 73
    19
 74
     0
 42
0.00000001
 43
0.00000001
 40
0.0
 40
0.0
 40
0.0
 40
0.0
 40
0.033589418317393
 40
0.0980090686472628
 40
0.1626136377275712
 40
0.2273772989805812
 40
0.2922707044179172
 40
0.3572397387519156
 40
0.4222220655242531
 40
0.4871348730787499
 40
0.5519085973445665
 40
0.6164811775628546
 40
0.680807825998502
 40
0.7448964574291644
 40
0.8088825689857988
 40
0.8730223831884382
 40
0.9380494480027766
 40
1.0
 40
1.0
 40
1.0
 40
1.0
 10
989.6663450644851
 20
-292.2041878898128
 30
0.0
 10
989.660618253691
 20
-292.4859187025932
 30
0.0
 10
989.6439082473746
 20
-293.3079685014
 30
0.0
 10
989.4553032754048
 20
-294.7690782689816
 30
0.0
 10
989.0306803925672
 20
-296.5791632095768
 30
0.0
 10
988.3997725594621
 20
-298.4269512690833
 30
0.0
 10
987.5798318065365
 20
-300.2630271491483
 30
0.0
 10
986.5891799690365
 20
-302.0418421848523
 30
0.0
 10
985.4526693201642
 20
-303.7182137219503
 30
0.0
 10
984.1994647229154
 20
-305.2500347929295
 30
0.0
 10
982.8627341475898
 20
-306.5993166492408
 30
0.0
 10
981.4786633670137
 20
-307.7336063501872
 30
0.0
 10
980.0854835722005
 20
-308.6274408757482
 30
0.0
 10
978.7224884127767
 20
-309.2630751873735
 30
0.0
 10
977.4268415087653
 20
-309.634434645746
 30
0.0
 10
976.2349316725195
 20
-309.7374807613209
 30
0.0
 10
975.180055622942
 20
-309.6107825584574
 30
0.0
 10
974.5997162176488
 20
-309.3306199534291
 30
0.0
 10
974.3165769730605
 20
-309.1939326500578
 30
0.0
  0
SPLINE
  5
1B7
330
1F
100
AcDbEntity
  8
0
  6
Continuous
 62
     7
370
    25
100
AcDbSpline
210
0.0
220
0.0
230
1.0
 70
     8
 71
     3
 72
    13
 73
     9
 74
     0
 42
0.00000001
 43
0.00000001
 40
0.0
 40
0.0
 40
0.0
 40
0.0
 40
0.0884811926552468
 40
0.3131877944236969
 40
0.5300342937928639
 40
0.7392297751212364
 40
0.9449828409041487
 40
1.0
 40
1.0
 40
1.0
 40
1.0
 10
729.956238137615
 20
-732.8242004863916
 30
0.0
 10
730.0780469774455
 20
-732.8950928691968
 30
0.0
 10
730.5092012232581
 20
-733.1460233590093
 30
0.0
 10
731.0840928458895
 20
-733.8532616436362
 30
0.0
 10
731.66285578681
 20
-734.9410573992315
 30
0.0
 10
732.0296360127295
 20
-736.2613465438229
 30
0.0
 10
732.1573068457055
 20
-737.3915720606523
 30
0.0
 10
732.1647704064712
 20
-738.0651569575704
 30
0.0
 10
732.1663450644302
 20
-738.2072695298763
 30
0.0
  0
SPLINE
  5
1B8
330
1F
100
AcDbEntity
  8
0
  6
Continuous
 62
     7
370
    25
100
AcDbSpline
210
0.0
220
0.0
230
1.0
 70
     8
 71
     3
 72
    23
 73
    19
 74
     0
 42
0.00000001
 43
0.00000001
 40
0.0
 40
0.0
 40
0.0
 40
0.0
 40
0.033589418317393
 40
0.0980090686472627
 40
0.1626136377275711
 40
0.227377298980581
 40
0.2922707044179169
 40
0.3572397387519147
 40
0.4222220655242475
 40
0.4871348730787402
 40
0.5519085973445639
 40
0.6164811775628495
 40
0.6808078259984959
 40
0.7448964574291635
 40
0.8088825689857959
 40
0.8730223831884344
 40
0.9380494480027659
 40
1.0
 40
1.0
 40
1.0
 40
1.0
 10
732.1663450644302
 20
-738.2072695298763
 30
0.0
 10
732.160618253636
 20
-738.4890003426567
 30
0.0
 10
732.1439082473196
 20
-739.3110501414635
 30
0.0
 10
731.9553032753498
 20
-740.7721599090451
 30
0.0
 10
731.5306803925122
 20
-742.5822448496402
 30
0.0
 10
730.899772559407
 20
-744.4300329091468
 30
0.0
 10
730.0798318064815
 20
-746.2661087892118
 30
0.0
 10
729.0891799689815
 20
-748.0449238249158
 30
0.0
 10
727.9526693201093
 20
-749.7212953620136
 30
0.0
 10
726.6994647228604
 20
-751.253116432993
 30
0.0
 10
725.3627341475349
 20
-752.6023982893042
 30
0.0
 10
723.9786633669587
 20
-753.7366879902507
 30
0.0
 10
722.5854835721454
 20
-754.6305225158118
 30
0.0
 10
721.2224884127218
 20
-755.2661568274368
 30
0.0
 10
719.9268415087103
 20
-755.6375162858095
 30
0.0
 10
718.7349316724644
 20
-755.7405624013844
 30
0.0
 10
717.6800556228869
 20
-755.6138641985209
 30
0.0
 10
717.0997162175938
 20
-755.3337015934927
 30
0.0
 10
716.8165769730053
 20
-755.1970142901213
 30
0.0
  0
SPLINE
  5
1B9
330
1F
100
AcDbEntity
  8
0
  6
Continuous
 62
     7
370
    25
100
AcDbSpline
210
0.0
220
0.0
230
1.0
 70
     8
 71
     3
 72
    13
 73
     9
 74
     0
 42
0.00000001
 43
0.00000001
 40
0.0
 40
0.0
 40
0.0
 40
0.0
 40
0.0884811926552118
 40
0.3131877944236244
 40
0.5300342937928001
 40
0.7392297751211692
 40
0.9449828409040641
 40
1.0
 40
1.0
 40
1.0
 40
1.0
 10
928.3852360314884
 20
-275.3436044247309
 30
0.0
 10
928.507044871319
 20
-275.414496807536
 30
0.0
 10
928.9381991171314
 20
-275.6654272973483
 30
0.0
 10
929.5130907397629
 20
-276.3726655819752
 30
0.0
 10
930.0918536806835
 20
-277.4604613375702
 30
0.0
 10
930.458633906603
 20
-278.7807504821618
 30
0.0
 10
930.5863047395794
 20
-279.9109759989911
 30
0.0
 10
930.5937683003449
 20
-280.5845608959095
 30
0.0
 10
930.5953429583038
 20
-280.7266734682156
 30
0.0
  0
SPLINE
  5
1BA
330
1F
100
AcDbEntity
  8
0
  6
Continuous
 62
     7
370
    25
100
AcDbSpline
210
0.0
220
0.0
230
1.0
 70
     8
 71
     3
 72
    23
 73
    19
 74
     0
 42
0.00000001
 43
0.00000001
 40
0.0
 40
0.0
 40
0.0
 40
0.0
 40
0.0335894183173931
 40
0.0980090686472632
 40
0.1626136377275716
 40
0.2273772989805846
 40
0.2922707044179086
 40
0.3572397387519067
 40
0.4222220655242483
 40
0.4871348730787414
 40
0.5519085973445588
 40
0.616481177562839
 40
0.6808078259984959
 40
0.7448964574291574
 40
0.8088825689857895
 40
0.8730223831884223
 40
0.9380494480027609
 40
0.9999999999999999
 40
0.9999999999999999
 40
0.9999999999999999
 40
0.9999999999999999
 10
930.5953429583038
 20
-280.7266734682156
 30
0.0
 10
930.5896161475097
 20
-281.0084042809961
 30
0.0
 10
930.5729061411931
 20
-281.8304540798028
 30
0.0
 10
930.3843011692236
 20
-283.2915638473844
 30
0.0
 10
929.959678286386
 20
-285.1016487879797
 30
0.0
 10
929.3287704532808
 20
-286.9494368474861
 30
0.0
 10
928.5088297003554
 20
-288.7855127275508
 30
0.0
 10
927.5181778628553
 20
-290.5643277632551
 30
0.0
 10
926.381667213983
 20
-292.2406993003529
 30
0.0
 10
925.1284626167342
 20
-293.7725203713322
 30
0.0
 10
923.7917320414087
 20
-295.1218022276434
 30
0.0
 10
922.4076612608326
 20
-296.25609192859
 30
0.0
 10
921.0144814660193
 20
-297.1499264541511
 30
0.0
 10
919.6514863065955
 20
-297.7855607657763
 30
0.0
 10
918.3558394025841
 20
-298.1569202241487
 30
0.0
 10
917.1639295663383
 20
-298.2599663397239
 30
0.0
 10
916.1090535167607
 20
-298.1332681368604
 30
0.0
 10
915.5287141114675
 20
-297.8531055318321
 30
0.0
 10
915.2455748668791
 20
-297.7164182284607
 30
0.0
  0
SPLINE
  5
1BB
330
1F
100
AcDbEntity
  8
0
  6
Continuous
 62
     7
370
    25
100
AcDbSpline
210
0.0
220
0.0
230
1.0
 70
     8
 71
     3
 72
    13
 73
     9
 74
     0
 42
0.00000001
 43
0.00000001
 40
0.0
 40
0.0
 40
0.0
 40
0.0
 40
0.0884811926552426
 40
0.3131877944236791
 40
0.5300342937928321
 40
0.7392297751212137
 40
0.9449828409041133
 40
1.0
 40
1.0
 40
1.0
 40
1.0
 10
690.4862564097815
 20
-687.3967229889462
 30
0.0
 10
690.6080652496121
 20
-687.4676153717513
 30
0.0
 10
691.0392194954245
 20
-687.7185458615638
 30
0.0
 10
691.614111118056
 20
-688.4257841461905
 30
0.0
 10
692.1928740589765
 20
-689.5135799017858
 30
0.0
 10
692.5596542848959
 20
-690.8338690463772
 30
0.0
 10
692.6873251178723
 20
-691.9640945632065
 30
0.0
 10
692.6947886786378
 20
-692.6376794601248
 30
0.0
 10
692.6963633365967
 20
-692.7797920324308
 30
0.0
  0
SPLINE
  5
1BC
330
1F
100
AcDbEntity
  8
0
  6
Continuous
 62
     7
370
    25
100
AcDbSpline
210
0.0
220
0.0
230
1.0
 70
     8
 71
     3
 72
    23
 73
    19
 74
     0
 42
0.00000001
 43
0.00000001
 40
0.0
 40
0.0
 40
0.0
 40
0.0
 40
0.0335894183173931
 40
0.0980090686472633
 40
0.1626136377275723
 40
0.2273772989805816
 40
0.2922707044179132
 40
0.3572397387519108
 40
0.4222220655242459
 40
0.4871348730787405
 40
0.5519085973445618
 40
0.6164811775628429
 40
0.6808078259984965
 40
0.7448964574291614
 40
0.8088825689857969
 40
0.8730223831884312
 40
0.9380494480027683
 40
0.9999999999999999
 40
0.9999999999999999
 40
0.9999999999999999
 40
0.9999999999999999
 10
692.6963633365967
 20
-692.7797920324308
 30
0.0
 10
692.6906365258027
 20
-693.0615228452112
 30
0.0
 10
692.6739265194861
 20
-693.8835726440179
 30
0.0
 10
692.4853215475165
 20
-695.3446824115996
 30
0.0
 10
692.0606986646789
 20
-697.1547673521948
 30
0.0
 10
691.4297908315737
 20
-699.0025554117013
 30
0.0
 10
690.6098500786483
 20
-700.8386312917661
 30
0.0
 10
689.6191982411482
 20
-702.6174463274702
 30
0.0
 10
688.482687592276
 20
-704.2938178645682
 30
0.0
 10
687.2294829950272
 20
-705.8256389355473
 30
0.0
 10
685.8927524197017
 20
-707.1749207918587
 30
0.0
 10
684.5086816391255
 20
-708.3092104928052
 30
0.0
 10
683.1155018443121
 20
-709.2030450183662
 30
0.0
 10
681.7525066848883
 20
-709.8386793299915
 30
0.0
 10
680.4568597808769
 20
-710.2100387883639
 30
0.0
 10
679.2649499446311
 20
-710.313084903939
 30
0.0
 10
678.2100738950536
 20
-710.1863867010754
 30
0.0
 10
677.6297344897604
 20
-709.9062240960473
 30
0.0
 10
677.346595245172
 20
-709.7695367926758
 30
0.0
  0
SPLINE
  5
1BD
330
1F
100
AcDbEntity
  8
0
  6
Continuous
 62
     7
370
    25
100
AcDbSpline
210
0.0
220
0.0
230
1.0
 70
     8
 71
     3
 72
    13
 73
     9
 74
     0
 42
0.00000001
 43
0.00000001
 40
0.0
 40
0.0
 40
0.0
 40
0.0
 40
0.0884811926552785
 40
0.3131877944237409
 40
0.5300342937929159
 40
0.7392297751212977
 40
0.9449828409042057
 40
1.0
 40
1.0
 40
1.0
 40
1.0
 10
858.7062381376581
 20
-299.5634006057431
 30
0.0
 10
858.8280469774887
 20
-299.6342929885483
 30
0.0
 10
859.2592012233013
 20
-299.8852234783607
 30
0.0
 10
859.8340928459328
 20
-300.5924617629878
 30
0.0
 10
860.4128557868532
 20
-301.6802575185833
 30
0.0
 10
860.7796360127727
 20
-303.0005466631746
 30
0.0
 10
860.9073068457488
 20
-304.130772180004
 30
0.0
 10
860.9147704065144
 20
-304.8043570769219
 30
0.0
 10
860.9163450644734
 20
-304.9464696492277
 30
0.0
  0
SPLINE
  5
1BE
330
1F
100
AcDbEntity
  8
0
  6
Continuous
 62
     7
370
    25
100
AcDbSpline
210
0.0
220
0.0
230
1.0
 70
     8
 71
     3
 72
    23
 73
    19
 74
     0
 42
0.00000001
 43
0.00000001
 40
0.0
 40
0.0
 40
0.0
 40
0.0
 40
0.0335894183173939
 40
0.0980090686472693
 40
0.1626136377275759
 40
0.2273772989805883
 40
0.2922707044179123
 40
0.3572397387519123
 40
0.4222220655242493
 40
0.4871348730787456
 40
0.5519085973445668
 40
0.6164811775628457
 40
0.6808078259984955
 40
0.7448964574291606
 40
0.8088825689857964
 40
0.8730223831884337
 40
0.9380494480027698
 40
0.9999999999999999
 40
0.9999999999999999
 40
0.9999999999999999
 40
0.9999999999999999
 10
860.9163450644734
 20
-304.9464696492277
 30
0.0
 10
860.9106182536792
 20
-305.2282004620081
 30
0.0
 10
860.8939082473628
 20
-306.050250260815
 30
0.0
 10
860.705303275393
 20
-307.5113600283966
 30
0.0
 10
860.2806803925555
 20
-309.3214449689918
 30
0.0
 10
859.6497725594502
 20
-311.1692330284983
 30
0.0
 10
858.8298318065247
 20
-313.0053089085631
 30
0.0
 10
857.8391799690247
 20
-314.7841239442672
 30
0.0
 10
856.7026693201525
 20
-316.4604954813651
 30
0.0
 10
855.4494647229036
 20
-317.9923165523444
 30
0.0
 10
854.1127341475781
 20
-319.3415984086556
 30
0.0
 10
852.7286633670019
 20
-320.4758881096021
 30
0.0
 10
851.3354835721888
 20
-321.3697226351631
 30
0.0
 10
849.972488412765
 20
-322.0053569467883
 30
0.0
 10
848.6768415087535
 20
-322.3767164051608
 30
0.0
 10
847.4849316725076
 20
-322.479762520736
 30
0.0
 10
846.4300556229301
 20
-322.3530643178723
 30
0.0
 10
845.849716217637
 20
-322.0729017128441
 30
0.0
 10
845.5665769730487
 20
-321.9362144094727
 30
0.0
  0
SPLINE
  5
1BF
330
1F
100
AcDbEntity
  8
0
  6
Continuous
 62
     7
370
    25
100
AcDbSpline
210
0.0
220
0.0
230
1.0
 70
     8
 71
     3
 72
    13
 73
     9
 74
     0
 42
0.00000001
 43
0.00000001
 40
0.0
 40
0.0
 40
0.0
 40
0.0
 40
0.088481192655215
 40
0.3131877944236529
 40
0.5300342937928249
 40
0.7392297751211863
 40
0.9449828409041006
 40
0.9999999999999999
 40
0.9999999999999999
 40
0.9999999999999999
 40
0.9999999999999999
 10
676.6262419820831
 20
-614.9352040635293
 30
0.0
 10
676.7480508219137
 20
-615.0060964463344
 30
0.0
 10
677.1792050677262
 20
-615.2570269361468
 30
0.0
 10
677.7540966903575
 20
-615.9642652207737
 30
0.0
 10
678.3328596312781
 20
-617.0520609763689
 30
0.0
 10
678.6996398571977
 20
-618.3723501209603
 30
0.0
 10
678.8273106901739
 20
-619.5025756377896
 30
0.0
 10
678.8347742509395
 20
-620.176160534708
 30
0.0
 10
678.8363489088985
 20
-620.318273107014
 30
0.0
  0
SPLINE
  5
1C0
330
1F
100
AcDbEntity
  8
0
  6
Continuous
 62
     7
370
    25
100
AcDbSpline
210
0.0
220
0.0
230
1.0
 70
     8
 71
     3
 72
    23
 73
    19
 74
     0
 42
0.00000001
 43
0.00000001
 40
0.0
 40
0.0
 40
0.0
 40
0.0
 40
0.033589418317393
 40
0.0980090686472639
 40
0.1626136377275735
 40
0.2273772989805836
 40
0.2922707044179146
 40
0.3572397387519075
 40
0.4222220655242416
 40
0.4871348730787292
 40
0.5519085973445474
 40
0.6164811775628336
 40
0.6808078259984857
 40
0.7448964574291506
 40
0.8088825689857857
 40
0.8730223831884218
 40
0.9380494480027618
 40
1.0
 40
1.0
 40
1.0
 40
1.0
 10
678.8363489088985
 20
-620.318273107014
 30
0.0
 10
678.8306220981043
 20
-620.6000039197944
 30
0.0
 10
678.8139120917879
 20
-621.4220537186012
 30
0.0
 10
678.6253071198183
 20
-622.8831634861829
 30
0.0
 10
678.2006842369807
 20
-624.6932484267778
 30
0.0
 10
677.5697764038753
 20
-626.5410364862845
 30
0.0
 10
676.7498356509498
 20
-628.3771123663493
 30
0.0
 10
675.7591838134499
 20
-630.1559274020533
 30
0.0
 10
674.6226731645777
 20
-631.8322989391512
 30
0.0
 10
673.369468567329
 20
-633.3641200101304
 30
0.0
 10
672.0327379920036
 20
-634.7134018664416
 30
0.0
 10
670.6486672114273
 20
-635.8476915673882
 30
0.0
 10
669.2554874166141
 20
-636.7415260929492
 30
0.0
 10
667.8924922571903
 20
-637.3771604045746
 30
0.0
 10
666.5968453531788
 20
-637.7485198629471
 30
0.0
 10
665.4049355169329
 20
-637.8515659785222
 30
0.0
 10
664.3500594673553
 20
-637.7248677756587
 30
0.0
 10
663.7697200620622
 20
-637.4447051706303
 30
0.0
 10
663.4865808174737
 20
-637.3080178672591
 30
0.0
  0
SPLINE
  5
1C1
330
1F
100
AcDbEntity
  8
0
  6
Continuous
 62
     7
370
    25
100
AcDbSpline
210
0.0
220
0.0
230
1.0
 70
     8
 71
     3
 72
    13
 73
     9
 74
     0
 42
0.00000001
 43
0.00000001
 40
0.0
 40
0.0
 40
0.0
 40
0.0
 40
0.0884811926552736
 40
0.3131877944237094
 40
0.5300342937928696
 40
0.7392297751212549
 40
0.944982840904177
 40
1.0
 40
1.0
 40
1.0
 40
1.0
 10
789.0272402438251
 20
-355.7932629738045
 30
0.0
 10
789.1490490836558
 20
-355.8641553566097
 30
0.0
 10
789.5802033294682
 20
-356.1150858464223
 30
0.0
 10
790.1550949520997
 20
-356.822324131049
 30
0.0
 10
790.7338578930201
 20
-357.9101198866444
 30
0.0
 10
791.1006381189396
 20
-359.2304090312359
 30
0.0
 10
791.2283089519159
 20
-360.3606345480652
 30
0.0
 10
791.2357725126813
 20
-361.0342194449833
 30
0.0
 10
791.2373471706402
 20
-361.1763320172891
 30
0.0
  0
SPLINE
  5
1C2
330
1F
100
AcDbEntity
  8
0
  6
Continuous
 62
     7
370
    25
100
AcDbSpline
210
0.0
220
0.0
230
1.0
 70
     8
 71
     3
 72
    23
 73
    19
 74
     0
 42
0.00000001
 43
0.00000001
 40
0.0
 40
0.0
 40
0.0
 40
0.0
 40
0.0335894183173931
 40
0.0980090686472731
 40
0.162613637727579
 40
0.2273772989805964
 40
0.2922707044179218
 40
0.3572397387519188
 40
0.4222220655242542
 40
0.4871348730787472
 40
0.5519085973445657
 40
0.6164811775628531
 40
0.6808078259985008
 40
0.7448964574291632
 40
0.8088825689857967
 40
0.8730223831884366
 40
0.9380494480027706
 40
1.0
 40
1.0
 40
1.0
 40
1.0
 10
791.2373471706403
 20
-361.1763320172891
 30
0.0
 10
791.2316203598461
 20
-361.4580628300695
 30
0.0
 10
791.2149103535297
 20
-362.2801126288765
 30
0.0
 10
791.02630538156
 20
-363.7412223964581
 30
0.0
 10
790.6016824987223
 20
-365.5513073370534
 30
0.0
 10
789.970774665617
 20
-367.3990953965598
 30
0.0
 10
789.1508339126916
 20
-369.2351712766247
 30
0.0
 10
788.1601820751915
 20
-371.0139863123287
 30
0.0
 10
787.0236714263192
 20
-372.6903578494265
 30
0.0
 10
785.7704668290706
 20
-374.222178920406
 30
0.0
 10
784.4337362537449
 20
-375.5714607767169
 30
0.0
 10
783.049665473169
 20
-376.7057504776637
 30
0.0
 10
781.6564856783557
 20
-377.5995850032245
 30
0.0
 10
780.2934905189318
 20
-378.2352193148498
 30
0.0
 10
778.9978436149204
 20
-378.6065787732223
 30
0.0
 10
777.8059337786746
 20
-378.7096248887972
 30
0.0
 10
776.7510577290972
 20
-378.5829266859338
 30
0.0
 10
776.1707183238041
 20
-378.3027640809055
 30
0.0
 10
775.8875790792156
 20
-378.1660767775342
 30
0.0
  0
SPLINE
  5
1C3
330
1F
100
AcDbEntity
  8
0
  6
Continuous
 62
     7
370
    25
100
AcDbSpline
210
0.0
220
0.0
230
1.0
 70
     8
 71
     3
 72
    13
 73
     9
 74
     0
 42
0.00000001
 43
0.00000001
 40
0.0
 40
0.0
 40
0.0
 40
0.0
 40
0.0884811926552417
 40
0.3131877944236784
 40
0.5300342937928315
 40
0.7392297751212135
 40
0.9449828409041133
 40
1.0
 40
1.0
 40
1.0
 40
1.0
 10
690.4862564097934
 20
-526.4712531012311
 30
0.0
 10
690.608065249624
 20
-526.5421454840363
 30
0.0
 10
691.0392194954364
 20
-526.7930759738488
 30
0.0
 10
691.6141111180681
 20
-527.5003142584754
 30
0.0
 10
692.1928740589884
 20
-528.5881100140708
 30
0.0
 10
692.5596542849081
 20
-529.9083991586622
 30
0.0
 10
692.6873251178844
 20
-531.0386246754915
 30
0.0
 10
692.6947886786497
 20
-531.7122095724097
 30
0.0
 10
692.6963633366088
 20
-531.8543221447158
 30
0.0
  0
SPLINE
  5
1C4
330
1F
100
AcDbEntity
  8
0
  6
Continuous
 62
     7
370
    25
100
AcDbSpline
210
0.0
220
0.0
230
1.0
 70
     8
 71
     3
 72
    23
 73
    19
 74
     0
 42
0.00000001
 43
0.00000001
 40
0.0
 40
0.0
 40
0.0
 40
0.0
 40
0.0335894183173931
 40
0.0980090686472633
 40
0.1626136377275723
 40
0.2273772989805815
 40
0.2922707044179131
 40
0.3572397387519107
 40
0.4222220655242458
 40
0.4871348730787404
 40
0.5519085973445617
 40
0.6164811775628427
 40
0.6808078259984963
 40
0.7448964574291613
 40
0.8088825689857968
 40
0.873022383188431
 40
0.9380494480027681
 40
0.9999999999999999
 40
0.9999999999999999
 40
0.9999999999999999
 40
0.9999999999999999
 10
692.6963633366088
 20
-531.8543221447158
 30
0.0
 10
692.6906365258146
 20
-532.1360529574962
 30
0.0
 10
692.6739265194981
 20
-532.958102756303
 30
0.0
 10
692.4853215475285
 20
-534.4192125238845
 30
0.0
 10
692.0606986646909
 20
-536.2292974644798
 30
0.0
 10
691.4297908315856
 20
-538.0770855239862
 30
0.0
 10
690.6098500786602
 20
-539.9131614040512
 30
0.0
 10
689.6191982411601
 20
-541.6919764397552
 30
0.0
 10
688.4826875922879
 20
-543.3683479768531
 30
0.0
 10
687.2294829950391
 20
-544.9001690478324
 30
0.0
 10
685.8927524197136
 20
-546.2494509041436
 30
0.0
 10
684.5086816391374
 20
-547.3837406050902
 30
0.0
 10
683.1155018443243
 20
-548.2775751306511
 30
0.0
 10
681.7525066849003
 20
-548.9132094422765
 30
0.0
 10
680.4568597808889
 20
-549.2845689006489
 30
0.0
 10
679.264949944643
 20
-549.3876150162239
 30
0.0
 10
678.2100738950656
 20
-549.2609168133605
 30
0.0
 10
677.6297344897723
 20
-548.9807542083322
 30
0.0
 10
677.3465952451841
 20
-548.8440669049608
 30
0.0
  0
SPLINE
  5
1C5
330
1F
100
AcDbEntity
  8
0
  6
Continuous
 62
     7
370
    25
100
AcDbSpline
210
0.0
220
0.0
230
1.0
 70
     8
 71
     3
 72
    13
 73
     9
 74
     0
 42
0.00000001
 43
0.00000001
 40
0.0
 40
0.0
 40
0.0
 40
0.0
 40
0.0884811926552044
 40
0.3131877944236282
 40
0.5300342937928031
 40
0.7392297751211642
 40
0.9449828409040807
 40
1.0
 40
1.0
 40
1.0
 40
1.0
 10
729.9562381376369
 20
-435.4727047083492
 30
0.0
 10
730.0780469774675
 20
-435.5435970911543
 30
0.0
 10
730.5092012232799
 20
-435.7945275809668
 30
0.0
 10
731.0840928459114
 20
-436.5017658655934
 30
0.0
 10
731.662855786832
 20
-437.5895616211887
 30
0.0
 10
732.0296360127516
 20
-438.90985076578
 30
0.0
 10
732.1573068457279
 20
-440.0400762826094
 30
0.0
 10
732.1647704064933
 20
-440.7136611795279
 30
0.0
 10
732.1663450644522
 20
-440.8557737518339
 30
0.0
  0
SPLINE
  5
1C6
330
1F
100
AcDbEntity
  8
0
  6
Continuous
 62
     7
370
    25
100
AcDbSpline
210
0.0
220
0.0
230
1.0
 70
     8
 71
     3
 72
    23
 73
    19
 74
     0
 42
0.00000001
 43
0.00000001
 40
0.0
 40
0.0
 40
0.0
 40
0.0
 40
0.033589418317393
 40
0.0980090686472628
 40
0.1626136377275713
 40
0.2273772989805813
 40
0.2922707044179173
 40
0.3572397387519158
 40
0.4222220655242532
 40
0.4871348730787501
 40
0.5519085973445651
 40
0.6164811775628496
 40
0.6808078259985059
 40
0.7448964574291657
 40
0.8088825689857974
 40
0.8730223831884347
 40
0.9380494480027709
 40
1.0
 40
1.0
 40
1.0
 40
1.0
 10
732.1663450644523
 20
-440.8557737518339
 30
0.0
 10
732.1606182536582
 20
-441.1375045646143
 30
0.0
 10
732.1439082473416
 20
-441.9595543634211
 30
0.0
 10
731.9553032753721
 20
-443.4206641310028
 30
0.0
 10
731.5306803925345
 20
-445.2307490715979
 30
0.0
 10
730.8997725594292
 20
-447.0785371311043
 30
0.0
 10
730.0798318065036
 20
-448.9146130111694
 30
0.0
 10
729.0891799690036
 20
-450.6934280468735
 30
0.0
 10
727.9526693201313
 20
-452.3697995839714
 30
0.0
 10
726.6994647228826
 20
-453.9016206549506
 30
0.0
 10
725.3627341475569
 20
-455.2509025112619
 30
0.0
 10
723.9786633669808
 20
-456.3851922122084
 30
0.0
 10
722.5854835721676
 20
-457.2790267377694
 30
0.0
 10
721.2224884127437
 20
-457.9146610493947
 30
0.0
 10
719.9268415087324
 20
-458.2860205077671
 30
0.0
 10
718.7349316724865
 20
-458.3890666233421
 30
0.0
 10
717.6800556229092
 20
-458.2623684204787
 30
0.0
 10
717.0997162176159
 20
-457.9822058154503
 30
0.0
 10
716.8165769730276
 20
-457.845518512079
 30
0.0
  0
LWPOLYLINE
  5
1C7
330
1F
100
AcDbEntity
  8
0
  6
Continuous
 62
     7
370
    25
100
AcDbPolyline
 90
      180
 70
   128
 43
0.0
 10
1052.4816225942
 20
-404.3783275299
 10
1052.3577011805
 20
-396.2972342611
 10
1051.9860896097
 20
-388.3691734808
 10
1051.3672457057
 20
-380.6039125235
 10
1050.5019318813
 20
-373.0110181546
 10
1049.3912141991
 20
-365.5998447852
 10
1048.0364610582
 20
-358.3795229466
 10
1046.4393415083
 20
-351.358948042
 10
1044.6018231932
 20
-344.5467693874
 10
1042.5261699271
 20
-337.9513795554
 10
1040.2149389051
 20
-331.5809040358
 10
1037.6709775533
 20
-325.4431912253
 10
1034.8974200203
 20
-319.5458027576
 10
1031.8976833162
 20
-313.8960041881
 10
1028.6754631028
 20
-308.5007560426
 10
1025.2347291406
 20
-303.366705242
 10
1021.5797203978
 20
-298.5001769131
 10
1017.7149398284
 20
-293.9071665965
 10
1013.6451488244
 20
-289.5933328597
 10
1009.3753613493
 20
-285.5639903258
 10
1004.9108377617
 20
-281.8241031265
 10
1000.2570783341
 20
-278.3782787853
 10
995.4198164766
 20
-275.2307625421
 10
990.4050116736
 20
-272.3854321223
 10
985.2188421413
 20
-269.84579296
 10
979.8676972168
 20
-267.6149738787
 10
974.358169486
 20
-265.6957232374
 10
968.6970466616
 20
-264.090405544
 10
962.8913032208
 20
-262.8009985425
 10
956.9480918127
 20
-261.8290907763
 10
950.8747344464
 20
-261.1758796314
 10
944.6787134703
 20
-260.8421698608
 10
938.3676623534
 20
-260.8283725936
 10
931.9493562819
 20
-261.1345048277
 10
925.431702579
 20
-261.7601894098
 10
918.8227309641
 20
-262.7046554993
 10
912.1305836598
 20
-263.9667395184
 10
905.3635053607
 20
-265.5448865853
 10
898.5298330761
 20
-267.4371524302
 10
891.6379858586
 20
-269.6412057902
 10
884.6964544323
 20
-272.1543312818
 10
877.713790732
 20
-274.973432746
 10
870.698597367
 20
-278.0950370627
 10
863.6595170232
 20
-281.5152984299
 10
856.6052218152
 20
-285.2300031012
 10
849.5444026022
 20
-289.2345745777
 10
842.4857582809
 20
-293.5240792458
 10
835.4379850684
 20
-298.0932324555
 10
828.409765789
 20
-302.9364050312
 10
821.4097591763
 20
-308.0476302064
 10
814.4465892062
 20
-313.4206109755
 10
807.5288344721
 20
-319.0487278509
 10
800.6650176158
 20
-324.9250470184
 10
793.863594828
 20
-331.0423288801
 10
787.1329454304
 20
-337.3930369728
 10
780.4813615518
 20
-343.9693472536
 10
773.9170379131
 20
-350.7631577383
 10
767.4480617305
 20
-357.7660984839
 10
761.082402753
 20
-364.9695418997
 10
754.827903443
 20
-372.3646133765
 10
748.6922693149
 20
-379.9422022204
 10
742.6830594416
 20
-387.6929728769
 10
736.807677142
 20
-395.6073764323
 10
731.07336086
 20
-403.6756623779
 10
725.4871752467
 20
-411.8878906226
 10
720.0560024572
 20
-420.2339437392
 10
714.7865336712
 20
-428.7035394285
 10
709.68526085
 20
-437.2862431879
 10
704.7584687381
 20
-445.9714811658
 10
700.0122271208
 20
-454.7485531891
 10
695.4523833458
 20
-463.6066459456
 10
691.0845551197
 20
-472.5348463058
 10
686.9141235866
 20
-481.522154768
 10
682.946226699
 20
-490.5574990097
 10
679.1857528875
 20
-499.6297475285
 10
675.6373350386
 20
-508.7277233559
 10
672.3053447867
 20
-517.8402178277
 10
669.1938871283
 20
-526.9560043928
 10
666.3067953651
 20
-536.0638524441
 10
663.6476263807
 20
-545.1525411548
 10
661.219656259
 20
-554.2108733024
 10
659.0258762481
 20
-563.2276890634
 10
657.0689890747
 20
-572.1918797623
 10
655.351405615
 20
-581.0924015577
 10
653.8752419237
 20
-589.9182890475
 10
652.6423166278
 20
-598.6586687793
 10
651.6541486855
 20
-607.3027726454
 10
650.9119555152
 20
-615.8399511497
 10
650.4166514954
 20
-624.2596865278
 10
650.1688468384
 20
-632.5516057043
 10
650.1688468384
 20
-640.7054930732
 10
650.4166514954
 20
-648.7113030828
 10
650.9119555152
 20
-656.5591726121
 10
651.6541486855
 20
-664.239433122
 10
652.6423166278
 20
-671.7426225669
 10
653.8752419237
 20
-679.0594970522
 10
655.351405615
 20
-686.1810422221
 10
657.0689890747
 20
-693.0984843658
 10
659.0258762481
 20
-699.8033012266
 10
661.219656259
 20
-706.2872325009
 10
663.6476263807
 20
-712.5422900154
 10
666.3067953651
 20
-718.560767568
 10
669.1938871283
 20
-724.3352504221
 10
672.3053447867
 20
-729.8586244415
 10
675.6373350386
 20
-735.1240848549
 10
679.1857528875
 20
-740.1251446392
 10
682.946226699
 20
-744.855642512
 10
686.9141235866
 20
-749.3097505217
 10
691.0845551197
 20
-753.4819812276
 10
695.4523833458
 20
-757.3671944609
 10
700.0122271208
 20
-760.9606036567
 10
704.7584687381
 20
-764.2577817515
 10
709.68526085
 20
-767.2546666371
 10
714.7865336712
 20
-769.9475661651
 10
720.0560024572
 20
-772.3331626957
 10
725.4871752467
 20
-774.408517185
 10
731.07336086
 20
-776.1710728058
 10
736.807677142
 20
-777.6186580977
 10
742.6830594416
 20
-778.7494896424
 10
748.6922693149
 20
-779.5621742605
 10
754.827903443
 20
-780.0557107284
 10
761.082402753
 20
-780.2294910115
 10
767.4480617305
 20
-780.0833010131
 10
773.9170379131
 20
-779.6173208388
 10
780.4813615518
 20
-778.8321245739
 10
787.1329454304
 20
-777.7286795766
 10
793.863594828
 20
-776.3083452861
 10
800.6650176158
 20
-774.5728715477
 10
807.5288344721
 20
-772.524396457
 10
814.4465892062
 20
-770.1654437258
 10
821.4097591763
 20
-767.4989195731
 10
828.409765789
 20
-764.5281091443
 10
835.4379850684
 20
-761.2566724643
 10
842.4857582809
 20
-757.6886399277
 10
849.5444026022
 20
-753.8284073344
 10
856.6052218152
 20
-749.6807304731
 10
863.6595170232
 20
-745.2507192625
 10
870.698597367
 20
-740.543831456
 10
877.713790732
 20
-735.5658659176
 10
884.6964544323
 20
-730.3229554781
 10
891.6379858586
 20
-724.8215593788
 10
898.5298330761
 20
-719.0684553144
 10
905.3635053607
 20
-713.0707310826
 10
912.1305836598
 20
-706.8357758519
 10
918.8227309641
 20
-700.3712710585
 10
925.431702579
 20
-693.6851809425
 10
931.9493562819
 20
-686.785742736
 10
938.3676623534
 20
-679.681456515
 10
944.6787134703
 20
-672.3810747276
 10
950.8747344464
 20
-664.8935914103
 10
956.9480918127
 20
-657.2282311081
 10
962.8913032208
 20
-649.3944375096
 10
968.6970466616
 20
-641.4018618122
 10
974.358169486
 20
-633.2603508325
 10
979.8676972168
 20
-624.9799348744
 10
985.2188421413
 20
-616.5708153721
 10
990.4050116736
 20
-608.0433523223
 10
995.4198164766
 20
-599.4080515199
 10
1000.2570783341
 20
-590.6755516157
 10
1004.9108377617
 20
-581.8566110095
 10
1009.3753613493
 20
-572.9620945952
 10
1013.6451488244
 20
-564.0029603763
 10
1017.7149398284
 20
-554.9902459646
 10
1021.5797203978
 20
-545.9350549828
 10
1025.2347291406
 20
-536.8485433844
 10
1028.6754631028
 20
-527.7419057098
 10
1031.8976833162
 20
-518.6263612947
 10
1034.8974200203
 20
-509.5131404477
 10
1037.6709775533
 20
-500.4134706148
 10
1040.2149389051
 20
-491.3385625474
 10
1042.5261699271
 20
-482.2995964904
 10
1044.6018231932
 20
-473.3077084082
 10
1046.4393415083
 20
-464.3739762655
 10
1048.0364610582
 20
-455.5094063791
 10
1049.3912141991
 20
-446.7249198582
 10
1050.5019318813
 20
-438.0313391498
 10
1051.3672457057
 20
-429.4393747051
 10
1051.9860896097
 20
-420.9596117848
 10
1052.3577011805
 20
-412.6024974176
 10
1052.4816225942
 20
-404.3783275299
  0
ARC
  5
1C8
330
1F
100
AcDbEntity
  8
0
  6
Continuous
 62
     7
370
    25
100
AcDbCircle
 10
758.8460961461
 20
-682.3413343047
 30
0.0
 40
99.05728169205526
100
AcDbArc
 50
214.4740200221
 51
266.1019784941
  0
ARC
  5
1C9
330
1F
100
AcDbEntity
  8
0
  6
Continuous
 62
     7
370
    25
100
AcDbCircle
 10
945.2234056785
 20
-359.4717029791
 30
0.0
 40
99.01518642926308
100
AcDbArc
 50
34.2993313732
 51
85.551564796
  0
ARC
  5
1CA
330
1F
100
AcDbEntity
  8
0
  6
Continuous
 62
     7
370
    25
100
AcDbCircle
 10
970.8923263891
 20
-376.0433505898
 30
0.0
 40
100.5976043012515
100
AcDbArc
 50
34.8798069794
 51
59.7140431551
  0
ARC
  5
1CB
330
1F
100
AcDbEntity
  8
0
  6
Continuous
 62
     7
370
    25
100
AcDbCircle
 10
786.2269699228
 20
-695.6763493737
 30
0.0
 40
101.2626780346109
100
AcDbArc
 50
240.3605673331
 51
265.7849387238
  0
LWPOLYLINE
  5
1CC
330
1F
100
AcDbEntity
  8
0
  6
Continuous
 62
     7
370
    25
100
AcDbPolyline
 90
       40
 70
   128
 43
0.0
 10
732.4592382833
 20
-440.4475696959
 10
732.3310424238
 20
-442.3553285954
 10
731.9497750509
 20
-444.3616893303
 10
731.3253107892
 20
-446.4146882115
 10
730.4738229351
 20
-448.4611536463
 10
729.4173645767
 20
-450.4480832549
 10
728.1832974306
 20
-452.3240166041
 10
726.8035831876
 20
-454.0403680057
 10
725.313955722
 20
-455.5526848598
 10
723.7529956025
 20
-456.8217989543
 10
722.1611308764
 20
-457.8148409008
 10
720.5795900039
 20
-458.5060914344
 10
719.0493340629
 20
-458.8776475296
 10
717.6099958783
 20
-458.9198860785
 10
716.2988535533
 20
-458.631713125
 10
715.1498649851
 20
-458.0205921972
 10
714.1927883743
 20
-457.1023510061
 10
713.4524115024
 20
-455.9007715161
 10
712.9479097413
 20
-454.4469740051
 10
712.6923494217
 20
-452.7786110647
 10
712.6923494217
 20
-450.9388924189
 10
712.9479097413
 20
-448.9754658143
 10
713.4524115024
 20
-446.9391829684
 10
714.1927883743
 20
-444.8827825375
 10
715.1498649851
 20
-442.8595242125
 10
716.2988535533
 20
-440.9218093212
 10
717.6099958783
 20
-439.1198236616
 10
719.0493340629
 20
-437.5002377156
 10
720.5795900039
 20
-436.1049979085
 10
722.1611308764
 20
-434.9702402185
 10
723.7529956025
 20
-434.1253542736
 10
725.313955722
 20
-433.5922221761
 10
726.8035831876
 20
-433.3846517672
 10
728.1832974306
 20
-433.5080190114
 10
729.4173645767
 20
-433.959128762
 10
730.4738229351
 20
-434.7262975134
 10
731.3253107892
 20
-435.7896559978
 10
731.9497750509
 20
-437.1216637891
 10
732.3310424238
 20
-438.6878225852
 10
732.4592382833
 20
-440.4475696959
  0
LWPOLYLINE
  5
1CD
330
1F
100
AcDbEntity
  8
0
  6
Continuous
 62
     7
370
    25
100
AcDbPolyline
 90
       40
 70
   128
 43
0.0
 10
679.1292421277
 20
-619.9100690511
 10
679.0010462683
 20
-621.8178279506
 10
678.6197788953
 20
-623.8241886855
 10
677.9953146336
 20
-625.8771875667
 10
677.1438267795
 20
-627.9236530014
 10
676.0873684211
 20
-629.9105826101
 10
674.853301275
 20
-631.7865159593
 10
673.4735870321
 20
-633.5028673609
 10
671.9839595664
 20
-635.015184215
 10
670.422999447
 20
-636.2842983094
 10
668.8311347209
 20
-637.2773402559
 10
667.2495938484
 20
-637.9685907896
 10
665.7193379073
 20
-638.3401468848
 10
664.2799997228
 20
-638.3823854337
 10
662.9688573977
 20
-638.0942124802
 10
661.8198688296
 20
-637.4830915524
 10
660.8627922188
 20
-636.5648503612
 10
660.1224153468
 20
-635.3632708713
 10
659.6179135857
 20
-633.9094733602
 10
659.3623532662
 20
-632.2411104199
 10
659.3623532662
 20
-630.4013917741
 10
659.6179135857
 20
-628.4379651694
 10
660.1224153468
 20
-626.4016823236
 10
660.8627922188
 20
-624.3452818927
 10
661.8198688296
 20
-622.3220235677
 10
662.9688573977
 20
-620.3843086764
 10
664.2799997228
 20
-618.5823230168
 10
665.7193379073
 20
-616.9627370708
 10
667.2495938484
 20
-615.5674972637
 10
668.8311347209
 20
-614.4327395737
 10
670.422999447
 20
-613.5878536288
 10
671.9839595664
 20
-613.0547215313
 10
673.4735870321
 20
-612.8471511224
 10
674.853301275
 20
-612.9705183666
 10
676.0873684211
 20
-613.4216281172
 10
677.1438267795
 20
-614.1887968685
 10
677.9953146336
 20
-615.252155353
 10
678.6197788953
 20
-616.5841631443
 10
679.0010462683
 20
-618.1503219404
 10
679.1292421277
 20
-619.9100690511
  0
LWPOLYLINE
  5
1CE
330
1F
100
AcDbEntity
  8
0
  6
Continuous
 62
     7
370
    25
100
AcDbPolyline
 90
       40
 70
   128
 43
0.0
 10
732.4592382832
 20
-737.799065474
 10
732.3310424238
 20
-739.7068243735
 10
731.9497750509
 20
-741.7131851084
 10
731.3253107892
 20
-743.7661839895
 10
730.4738229351
 20
-745.8126494243
 10
729.4173645767
 20
-747.7995790329
 10
728.1832974306
 20
-749.6755123822
 10
726.8035831876
 20
-751.3918637837
 10
725.3139557219
 20
-752.9041806378
 10
723.7529956025
 20
-754.1732947323
 10
722.1611308764
 20
-755.1663366788
 10
720.5795900039
 20
-755.8575872125
 10
719.0493340629
 20
-756.2291433076
 10
717.6099958783
 20
-756.2713818566
 10
716.2988535532
 20
-755.9832089031
 10
715.1498649851
 20
-755.3720879752
 10
714.1927883743
 20
-754.4538467841
 10
713.4524115023
 20
-753.2522672942
 10
712.9479097413
 20
-751.7984697831
 10
712.6923494217
 20
-750.1301068428
 10
712.6923494217
 20
-748.290388197
 10
712.9479097413
 20
-746.3269615923
 10
713.4524115023
 20
-744.2906787465
 10
714.1927883743
 20
-742.2342783155
 10
715.1498649851
 20
-740.2110199905
 10
716.2988535532
 20
-738.2733050993
 10
717.6099958783
 20
-736.4713194396
 10
719.0493340629
 20
-734.8517334936
 10
720.5795900039
 20
-733.4564936866
 10
722.1611308764
 20
-732.3217359966
 10
723.7529956025
 20
-731.4768500517
 10
725.3139557219
 20
-730.9437179541
 10
726.8035831876
 20
-730.7361475452
 10
728.1832974306
 20
-730.8595147895
 10
729.4173645767
 20
-731.3106245401
 10
730.4738229351
 20
-732.0777932914
 10
731.3253107892
 20
-733.1411517758
 10
731.9497750509
 20
-734.4731595672
 10
732.3310424238
 20
-736.0393183633
 10
732.4592382832
 20
-737.799065474
  0
LWPOLYLINE
  5
1CF
330
1F
100
AcDbEntity
  8
0
  6
Continuous
 62
     7
370
    25
100
AcDbPolyline
 90
       40
 70
   128
 43
0.0
 10
861.2092382833
 20
-725.0567837145
 10
861.0810424238
 20
-726.964542614
 10
860.6997750509
 20
-728.9709033489
 10
860.0753107892
 20
-731.0239022301
 10
859.2238229351
 20
-733.0703676649
 10
858.1673645767
 20
-735.0572972735
 10
856.9332974306
 20
-736.9332306228
 10
855.5535831876
 20
-738.6495820243
 10
854.063955722
 20
-740.1618988784
 10
852.5029956025
 20
-741.4310129729
 10
850.9111308764
 20
-742.4240549194
 10
849.3295900039
 20
-743.1153054531
 10
847.7993340629
 20
-743.4868615482
 10
846.3599958783
 20
-743.5291000972
 10
845.0488535533
 20
-743.2409271437
 10
843.8998649851
 20
-742.6298062158
 10
842.9427883743
 20
-741.7115650247
 10
842.2024115024
 20
-740.5099855348
 10
841.6979097413
 20
-739.0561880237
 10
841.4423494217
 20
-737.3878250834
 10
841.4423494217
 20
-735.5481064376
 10
841.6979097413
 20
-733.5846798329
 10
842.2024115024
 20
-731.548396987
 10
842.9427883743
 20
-729.4919965561
 10
843.8998649851
 20
-727.4687382311
 10
845.0488535533
 20
-725.5310233399
 10
846.3599958783
 20
-723.7290376802
 10
847.7993340629
 20
-722.1094517342
 10
849.3295900039
 20
-720.7142119272
 10
850.9111308764
 20
-719.5794542371
 10
852.5029956025
 20
-718.7345682923
 10
854.063955722
 20
-718.2014361947
 10
855.5535831876
 20
-717.9938657858
 10
856.9332974306
 20
-718.11723303
 10
858.1673645767
 20
-718.5683427806
 10
859.2238229351
 20
-719.335511532
 10
860.0753107892
 20
-720.3988700164
 10
860.6997750509
 20
-721.7308778078
 10
861.0810424238
 20
-723.2970366038
 10
861.2092382833
 20
-725.0567837145
  0
LWPOLYLINE
  5
1D0
330
1F
100
AcDbEntity
  8
0
  6
Continuous
 62
     7
370
    25
100
AcDbPolyline
 90
       40
 70
   128
 43
0.0
 10
989.9592382833
 20
-589.1474796119
 10
989.8310424238
 20
-591.0552385114
 10
989.4497750509
 20
-593.0615992463
 10
988.8253107892
 20
-595.1145981275
 10
987.9738229351
 20
-597.1610635623
 10
986.9173645767
 20
-599.1479931709
 10
985.6832974306
 20
-601.0239265202
 10
984.3035831876
 20
-602.7402779217
 10
982.813955722
 20
-604.2525947758
 10
981.2529956025
 20
-605.5217088703
 10
979.6611308764
 20
-606.5147508168
 10
978.0795900039
 20
-607.2060013505
 10
976.5493340629
 20
-607.5775574456
 10
975.1099958784
 20
-607.6197959946
 10
973.7988535533
 20
-607.331623041
 10
972.6498649851
 20
-606.7205021132
 10
971.6927883743
 20
-605.8022609221
 10
970.9524115024
 20
-604.6006814322
 10
970.4479097413
 20
-603.1468839211
 10
970.1923494218
 20
-601.4785209808
 10
970.1923494218
 20
-599.638802335
 10
970.4479097413
 20
-597.6753757303
 10
970.9524115024
 20
-595.6390928844
 10
971.6927883743
 20
-593.5826924535
 10
972.6498649851
 20
-591.5594341285
 10
973.7988535533
 20
-589.6217192372
 10
975.1099958784
 20
-587.8197335776
 10
976.5493340629
 20
-586.2001476316
 10
978.0795900039
 20
-584.8049078246
 10
979.6611308764
 20
-583.6701501345
 10
981.2529956025
 20
-582.8252641897
 10
982.813955722
 20
-582.2921320921
 10
984.3035831876
 20
-582.0845616832
 10
985.6832974306
 20
-582.2079289274
 10
986.9173645767
 20
-582.659038678
 10
987.9738229351
 20
-583.4262074294
 10
988.8253107892
 20
-584.4895659138
 10
989.4497750509
 20
-585.8215737052
 10
989.8310424238
 20
-587.3877325012
 10
989.9592382833
 20
-589.1474796119
  0
LWPOLYLINE
  5
1D1
330
1F
100
AcDbEntity
  8
0
  6
Continuous
 62
     7
370
    25
100
AcDbPolyline
 90
       40
 70
   128
 43
0.0
 10
1029.4292200111
 20
-337.2234613313
 10
1029.3010241517
 20
-339.1312202308
 10
1028.9197567788
 20
-341.1375809657
 10
1028.2952925171
 20
-343.1905798469
 10
1027.4438046629
 20
-345.2370452817
 10
1026.3873463046
 20
-347.2239748903
 10
1025.1532791585
 20
-349.0999082396
 10
1023.7735649155
 20
-350.8162596411
 10
1022.2839374498
 20
-352.3285764952
 10
1020.7229773304
 20
-353.5976905897
 10
1019.1311126043
 20
-354.5907325362
 10
1017.5495717318
 20
-355.2819830699
 10
1016.0193157907
 20
-355.653539165
 10
1014.5799776062
 20
-355.695777714
 10
1013.2688352811
 20
-355.4076047605
 10
1012.119846713
 20
-354.7964838326
 10
1011.1627701022
 20
-353.8782426415
 10
1010.4223932302
 20
-352.6766631516
 10
1009.9178914692
 20
-351.2228656405
 10
1009.6623311496
 20
-349.5545027002
 10
1009.6623311496
 20
-347.7147840544
 10
1009.9178914692
 20
-345.7513574497
 10
1010.4223932302
 20
-343.7150746038
 10
1011.1627701022
 20
-341.6586741729
 10
1012.119846713
 20
-339.6354158479
 10
1013.2688352811
 20
-337.6977009567
 10
1014.5799776062
 20
-335.895715297
 10
1016.0193157907
 20
-334.276129351
 10
1017.5495717318
 20
-332.880889544
 10
1019.1311126043
 20
-331.7461318539
 10
1020.7229773304
 20
-330.9012459091
 10
1022.2839374498
 20
-330.3681138115
 10
1023.7735649155
 20
-330.1605434026
 10
1025.1532791585
 20
-330.2839106468
 10
1026.3873463046
 20
-330.7350203974
 10
1027.4438046629
 20
-331.5021891488
 10
1028.2952925171
 20
-332.5655476332
 10
1028.9197567788
 20
-333.8975554246
 10
1029.3010241517
 20
-335.4637142206
 10
1029.4292200111
 20
-337.2234613313
  0
LWPOLYLINE
  5
1D2
330
1F
100
AcDbEntity
  8
0
  6
Continuous
 62
     7
370
    25
100
AcDbPolyline
 90
       40
 70
   128
 43
0.0
 10
930.8882361771
 20
-280.3184694123
 10
930.7600403177
 20
-282.2262283118
 10
930.3787729448
 20
-284.2325890467
 10
929.7543086831
 20
-286.2855879279
 10
928.9028208289
 20
-288.3320533626
 10
927.8463624705
 20
-290.3189829713
 10
926.6122953244
 20
-292.1949163205
 10
925.2325810815
 20
-293.9112677221
 10
923.7429536158
 20
-295.4235845762
 10
922.1819934964
 20
-296.6926986706
 10
920.5901287703
 20
-297.6857406171
 10
919.0085878978
 20
-298.3769911508
 10
917.4783319567
 20
-298.748547246
 10
916.0389937722
 20
-298.7907857949
 10
914.7278514471
 20
-298.5026128414
 10
913.578862879
 20
-297.8914919136
 10
912.6217862682
 20
-296.9732507224
 10
911.8814093962
 20
-295.7716712325
 10
911.3769076352
 20
-294.3178737214
 10
911.1213473156
 20
-292.6495107811
 10
911.1213473156
 20
-290.8097921353
 10
911.3769076352
 20
-288.8463655306
 10
911.8814093962
 20
-286.8100826848
 10
912.6217862682
 20
-284.7536822539
 10
913.578862879
 20
-282.7304239289
 10
914.7278514471
 20
-280.7927090376
 10
916.0389937722
 20
-278.990723378
 10
917.4783319567
 20
-277.371137432
 10
919.0085878978
 20
-275.9758976249
 10
920.5901287703
 20
-274.8411399349
 10
922.1819934964
 20
-273.99625399
 10
923.7429536158
 20
-273.4631218925
 10
925.2325810815
 20
-273.2555514836
 10
926.6122953244
 20
-273.3789187278
 10
927.8463624705
 20
-273.8300284784
 10
928.9028208289
 20
-274.5971972297
 10
929.7543086831
 20
-275.6605557142
 10
930.3787729448
 20
-276.9925635055
 10
930.7600403177
 20
-278.5587223016
 10
930.8882361771
 20
-280.3184694123
  0
LWPOLYLINE
  5
1D3
330
1F
100
AcDbEntity
  8
0
  6
Continuous
 62
     7
370
    25
100
AcDbPolyline
 90
       40
 70
   128
 43
0.0
 10
861.2092382833
 20
-304.5382655933
 10
861.0810424238
 20
-306.4460244928
 10
860.6997750509
 20
-308.4523852277
 10
860.0753107892
 20
-310.5053841089
 10
859.2238229351
 20
-312.5518495437
 10
858.1673645767
 20
-314.5387791523
 10
856.9332974306
 20
-316.4147125015
 10
855.5535831876
 20
-318.1310639031
 10
854.063955722
 20
-319.6433807572
 10
852.5029956025
 20
-320.9124948517
 10
850.9111308764
 20
-321.9055367981
 10
849.3295900039
 20
-322.5967873318
 10
847.7993340629
 20
-322.968343427
 10
846.3599958784
 20
-323.0105819759
 10
845.0488535533
 20
-322.7224090224
 10
843.8998649852
 20
-322.1112880946
 10
842.9427883744
 20
-321.1930469034
 10
842.2024115024
 20
-319.9914674135
 10
841.6979097413
 20
-318.5376699025
 10
841.4423494218
 20
-316.8693069621
 10
841.4423494218
 20
-315.0295883163
 10
841.6979097413
 20
-313.0661617117
 10
842.2024115024
 20
-311.0298788658
 10
842.9427883744
 20
-308.9734784349
 10
843.8998649852
 20
-306.9502201099
 10
845.0488535533
 20
-305.0125052186
 10
846.3599958784
 20
-303.210519559
 10
847.7993340629
 20
-301.590933613
 10
849.3295900039
 20
-300.1956938059
 10
850.9111308764
 20
-299.0609361159
 10
852.5029956025
 20
-298.216050171
 10
854.063955722
 20
-297.6829180735
 10
855.5535831876
 20
-297.4753476646
 10
856.9332974306
 20
-297.5987149088
 10
858.1673645767
 20
-298.0498246594
 10
859.2238229351
 20
-298.8169934108
 10
860.0753107892
 20
-299.8803518952
 10
860.6997750509
 20
-301.2123596865
 10
861.0810424238
 20
-302.7785184826
 10
861.2092382833
 20
-304.5382655933
  0
LWPOLYLINE
  5
1D4
330
1F
100
AcDbEntity
  8
0
  6
Continuous
 62
     7
370
    25
100
AcDbPolyline
 90
      157
 70
   128
 43
0.0
 10
1004.044808083
 20
-432.3403053598
 10
1003.9209396662
 20
-439.5136302952
 10
1003.5495353309
 20
-446.8183355012
 10
1002.9311974963
 20
-454.2425727192
 10
1002.0669291087
 20
-461.7742998092
 10
1000.9581320144
 20
-469.4013002825
 10
999.6066046864
 20
-477.1112031163
 10
998.0145393071
 20
-484.89150282
 10
996.1845182122
 20
-492.7295797191
 10
994.1195097027
 20
-500.6127204242
 10
991.82286323
 20
-508.5281384522
 10
989.2983039629
 20
-516.4629949662
 10
986.549926746
 20
-524.4044195998
 10
983.582189457
 20
-532.3395313333
 10
980.3999057767
 20
-540.2554593865
 10
977.0082373809
 20
-548.139364095
 10
973.4126855681
 20
-555.9784577365
 10
969.6190823365
 20
-563.7600252727
 10
965.6335809244
 20
-571.4714449724
 10
961.4626458297
 20
-579.1002088846
 10
957.1130423244
 20
-586.6339431266
 10
952.5918254812
 20
-594.0604279536
 10
947.9063287304
 20
-601.3676175802
 10
943.0641519649
 20
-608.5436597182
 10
938.0731492131
 20
-615.5769148008
 10
932.9414158996
 20
-622.4559748627
 10
927.6772757148
 20
-629.1696820433
 10
922.2892671132
 20
-635.707146685
 10
916.7861294645
 20
-642.0577649961
 10
911.1767888781
 20
-648.2112362507
 10
905.4703437249
 20
-654.1575794957
 10
899.6760498799
 20
-659.8871497408
 10
893.8033057087
 20
-665.390653602
 10
887.861636824
 20
-670.659164376
 10
881.8606806345
 20
-675.684136519
 10
875.8101707129
 20
-680.4574195078
 10
869.7199210086
 20
-684.9712710599
 10
863.5998099287
 20
-689.2183696917
 10
857.459764316
 20
-693.1918265936
 10
851.3097433467
 20
-696.885196804
 10
845.1597223774
 20
-700.2924896629
 10
839.0196767646
 20
-703.4081785288
 10
832.8995656848
 20
-706.227209743
 10
826.8093159804
 20
-708.7450108265
 10
820.7588060589
 20
-710.9574978969
 10
814.7578498693
 20
-712.8610822919
 10
808.8161809846
 20
-714.4526763907
 10
802.9434368135
 20
-715.7296986219
 10
797.1491429684
 20
-716.6900776508
 10
791.4426978152
 20
-717.332255739
 10
785.8333572288
 20
-717.6551912713
 10
780.3302195801
 20
-717.6583604452
 10
774.9422109785
 20
-717.3417581202
 10
769.6780707937
 20
-716.7058978264
 10
764.5463374803
 20
-715.7518109316
 10
759.5553347285
 20
-714.4810449681
 10
754.7131579629
 20
-712.8956611231
 10
750.0276612122
 20
-710.998230895
 10
745.506444369
 20
-708.7918319224
 10
741.1568408636
 20
-706.2800429927
 10
736.9859057689
 20
-703.4669382365
 10
733.0004043569
 20
-700.3570805202
 10
729.2068011253
 20
-696.9555140443
 10
725.6112493125
 20
-693.2677561622
 10
722.2195809167
 20
-689.2997884304
 10
719.0372972364
 20
-685.0580469073
 10
716.0695599474
 20
-680.549411713
 10
713.3211827304
 20
-675.7811958705
 10
710.7966234634
 20
-670.7611334431
 10
708.4999769906
 20
-665.4973669905
 10
706.4349684811
 20
-659.9984343612
 10
704.6049473863
 20
-654.2732548439
 10
703.0128820069
 20
-648.3311147008
 10
701.661354679
 20
-642.181652105
 10
700.5525575847
 20
-635.8348415072
 10
699.688289197
 20
-629.3009774575
 10
699.0699513624
 20
-622.5906579071
 10
698.6985470271
 20
-615.7147670191
 10
698.5746786104
 20
-608.6844575135
 10
698.6985470271
 20
-601.5111325781
 10
699.0699513624
 20
-594.2064273721
 10
699.688289197
 20
-586.7821901541
 10
700.5525575847
 20
-579.2504630641
 10
701.661354679
 20
-571.6234625908
 10
703.0128820069
 20
-563.913559757
 10
704.6049473863
 20
-556.1332600533
 10
706.4349684811
 20
-548.2951831542
 10
708.4999769906
 20
-540.4120424491
 10
710.7966234634
 20
-532.4966244211
 10
713.3211827304
 20
-524.5617679071
 10
716.0695599474
 20
-516.6203432735
 10
719.0372972364
 20
-508.68523154
 10
722.2195809167
 20
-500.7693034868
 10
725.6112493125
 20
-492.8853987784
 10
729.2068011253
 20
-485.0463051368
 10
733.0004043569
 20
-477.2647376006
 10
736.985905769
 20
-469.5533179009
 10
741.1568408636
 20
-461.9245539887
 10
745.506444369
 20
-454.3908197468
 10
750.0276612122
 20
-446.9643349197
 10
754.7131579629
 20
-439.6571452931
 10
759.5553347285
 20
-432.4811031551
 10
764.5463374803
 20
-425.4478480725
 10
769.6780707937
 20
-418.5687880106
 10
774.9422109785
 20
-411.85508083
 10
780.3302195801
 20
-405.3176161884
 10
785.8333572288
 20
-398.9669978772
 10
791.4426978152
 20
-392.8135266227
 10
797.1491429684
 20
-386.8671833776
 10
802.9434368135
 20
-381.1376131325
 10
808.8161809846
 20
-375.6341092713
 10
814.7578498693
 20
-370.3655984973
 10
820.7588060589
 20
-365.3406263543
 10
826.8093159804
 20
-360.5673433655
 10
832.8995656848
 20
-356.0534918134
 10
839.0196767646
 20
-351.8063931816
 10
845.1597223774
 20
-347.8329362797
 10
851.3097433467
 20
-344.1395660693
 10
857.459764316
 20
-340.7322732104
 10
863.5998099287
 20
-337.6165843445
 10
869.7199210086
 20
-334.7975531303
 10
875.8101707129
 20
-332.2797520468
 10
881.8606806345
 20
-330.0672649764
 10
887.861636824
 20
-328.1636805814
 10
893.8033057087
 20
-326.5720864826
 10
899.6760498799
 20
-325.2950642514
 10
905.4703437249
 20
-324.3346852225
 10
911.1767888781
 20
-323.6925071343
 10
916.7861294645
 20
-323.369571602
 10
922.2892671132
 20
-323.3664024281
 10
927.6772757148
 20
-323.6830047531
 10
932.9414158996
 20
-324.3188650469
 10
938.0731492131
 20
-325.2729519418
 10
943.0641519649
 20
-326.5437179052
 10
947.9063287304
 20
-328.1291017502
 10
952.5918254812
 20
-330.0265319783
 10
957.1130423244
 20
-332.2329309509
 10
961.4626458297
 20
-334.7447198807
 10
965.6335809244
 20
-337.5578246368
 10
969.6190823365
 20
-340.6676823531
 10
973.4126855681
 20
-344.069248829
 10
977.0082373809
 20
-347.7570067112
 10
980.3999057767
 20
-351.7249744429
 10
983.582189457
 20
-355.966715966
 10
986.549926746
 20
-360.4753511603
 10
989.2983039629
 20
-365.2435670028
 10
991.82286323
 20
-370.2636294302
 10
994.1195097027
 20
-375.5273958828
 10
996.1845182122
 20
-381.0263285121
 10
998.0145393071
 20
-386.7515080294
 10
999.6066046864
 20
-392.6936481725
 10
1000.9581320144
 20
-398.8431107683
 10
1002.0669291087
 20
-405.1899213661
 10
1002.9311974963
 20
-411.7237854159
 10
1003.5495353309
 20
-418.4341049662
 10
1003.9209396662
 20
-425.3099958542
 10
1004.044808083
 20
-432.3403053598
  0
LWPOLYLINE
  5
1D5
330
1F
100
AcDbEntity
  8
0
  6
Continuous
 62
     7
370
    25
100
AcDbPolyline
 90
       40
 70
   128
 43
0.0
 10
1043.2892344388
 20
-409.6849802568
 10
1043.1610385794
 20
-411.5927391563
 10
1042.7797712065
 20
-413.5990998912
 10
1042.1553069448
 20
-415.6520987723
 10
1041.3038190906
 20
-417.6985642071
 10
1040.2473607323
 20
-419.6854938157
 10
1039.0132935862
 20
-421.561427165
 10
1037.6335793432
 20
-423.2777785665
 10
1036.1439518775
 20
-424.7900954206
 10
1034.5829917581
 20
-426.0592095151
 10
1032.991127032
 20
-427.0522514616
 10
1031.4095861595
 20
-427.7435019953
 10
1029.8793302184
 20
-428.1150580904
 10
1028.4399920339
 20
-428.1572966394
 10
1027.1288497088
 20
-427.8691236859
 10
1025.9798611407
 20
-427.258002758
 10
1025.0227845299
 20
-426.3397615669
 10
1024.2824076579
 20
-425.138182077
 10
1023.7779058969
 20
-423.6843845659
 10
1023.5223455773
 20
-422.0160216256
 10
1023.5223455773
 20
-420.1763029798
 10
1023.7779058969
 20
-418.2128763751
 10
1024.2824076579
 20
-416.1765935293
 10
1025.0227845299
 20
-414.1201930983
 10
1025.9798611407
 20
-412.0969347733
 10
1027.1288497088
 20
-410.1592198821
 10
1028.4399920339
 20
-408.3572342224
 10
1029.8793302184
 20
-406.7376482764
 10
1031.4095861595
 20
-405.3424084694
 10
1032.991127032
 20
-404.2076507794
 10
1034.5829917581
 20
-403.3627648345
 10
1036.1439518775
 20
-402.8296327369
 10
1037.6335793432
 20
-402.622062328
 10
1039.0132935862
 20
-402.7454295723
 10
1040.2473607323
 20
-403.1965393229
 10
1041.3038190906
 20
-403.9637080742
 10
1042.1553069448
 20
-405.0270665586
 10
1042.7797712065
 20
-406.35907435
 10
1043.1610385794
 20
-407.9252331461
 10
1043.2892344388
 20
-409.6849802568
  0
LWPOLYLINE
  5
1D6
330
1F
100
AcDbEntity
  8
0
  6
Continuous
 62
     7
370
    25
100
AcDbPolyline
 90
       40
 70
   128
 43
0.0
 10
989.9592382833
 20
-291.7959838339
 10
989.8310424239
 20
-293.7037427334
 10
989.4497750509
 20
-295.7101034683
 10
988.8253107892
 20
-297.7631023495
 10
987.9738229351
 20
-299.8095677842
 10
986.9173645767
 20
-301.7964973929
 10
985.6832974306
 20
-303.6724307421
 10
984.3035831877
 20
-305.3887821437
 10
982.813955722
 20
-306.9010989977
 10
981.2529956026
 20
-308.1702130922
 10
979.6611308765
 20
-309.1632550387
 10
978.079590004
 20
-309.8545055724
 10
976.5493340629
 20
-310.2260616676
 10
975.1099958784
 20
-310.2683002165
 10
973.7988535533
 20
-309.980127263
 10
972.6498649852
 20
-309.3690063352
 10
971.6927883744
 20
-308.450765144
 10
970.9524115024
 20
-307.2491856541
 10
970.4479097413
 20
-305.795388143
 10
970.1923494218
 20
-304.1270252027
 10
970.1923494218
 20
-302.2873065569
 10
970.4479097413
 20
-300.3238799522
 10
970.9524115024
 20
-298.2875971064
 10
971.6927883744
 20
-296.2311966755
 10
972.6498649852
 20
-294.2079383505
 10
973.7988535533
 20
-292.2702234592
 10
975.1099958784
 20
-290.4682377996
 10
976.5493340629
 20
-288.8486518536
 10
978.079590004
 20
-287.4534120465
 10
979.6611308765
 20
-286.3186543565
 10
981.2529956026
 20
-285.4737684116
 10
982.813955722
 20
-284.9406363141
 10
984.3035831877
 20
-284.7330659052
 10
985.6832974306
 20
-284.8564331494
 10
986.9173645767
 20
-285.3075429
 10
987.9738229351
 20
-286.0747116513
 10
988.8253107892
 20
-287.1380701358
 10
989.4497750509
 20
-288.4700779271
 10
989.8310424239
 20
-290.0362367232
 10
989.9592382833
 20
-291.7959838339
  0
LWPOLYLINE
  5
1D7
330
1F
100
AcDbEntity
  8
0
  6
Continuous
 62
     7
370
    25
100
AcDbPolyline
 90
       40
 70
   128
 43
0.0
 10
1029.4292200111
 20
-498.1489312191
 10
1029.3010241517
 20
-500.0566901186
 10
1028.9197567788
 20
-502.0630508535
 10
1028.2952925171
 20
-504.1160497346
 10
1027.4438046629
 20
-506.1625151694
 10
1026.3873463045
 20
-508.149444778
 10
1025.1532791584
 20
-510.0253781273
 10
1023.7735649155
 20
-511.7417295288
 10
1022.2839374498
 20
-513.2540463829
 10
1020.7229773304
 20
-514.5231604774
 10
1019.1311126043
 20
-515.5162024239
 10
1017.5495717318
 20
-516.2074529576
 10
1016.0193157907
 20
-516.5790090527
 10
1014.5799776062
 20
-516.6212476017
 10
1013.2688352811
 20
-516.3330746482
 10
1012.119846713
 20
-515.7219537203
 10
1011.1627701022
 20
-514.8037125292
 10
1010.4223932302
 20
-513.6021330393
 10
1009.9178914692
 20
-512.1483355282
 10
1009.6623311496
 20
-510.4799725879
 10
1009.6623311496
 20
-508.6402539421
 10
1009.9178914692
 20
-506.6768273374
 10
1010.4223932302
 20
-504.6405444916
 10
1011.1627701022
 20
-502.5841440606
 10
1012.119846713
 20
-500.5608857356
 10
1013.2688352811
 20
-498.6231708444
 10
1014.5799776062
 20
-496.8211851847
 10
1016.0193157907
 20
-495.2015992387
 10
1017.5495717318
 20
-493.8063594317
 10
1019.1311126043
 20
-492.6716017416
 10
1020.7229773304
 20
-491.8267157968
 10
1022.2839374498
 20
-491.2935836992
 10
1023.7735649155
 20
-491.0860132903
 10
1025.1532791584
 20
-491.2093805346
 10
1026.3873463045
 20
-491.6604902852
 10
1027.4438046629
 20
-492.4276590365
 10
1028.2952925171
 20
-493.4910175209
 10
1028.9197567788
 20
-494.8230253123
 10
1029.3010241517
 20
-496.3891841084
 10
1029.4292200111
 20
-498.1489312191
  0
LWPOLYLINE
  5
1D8
330
1F
100
AcDbEntity
  8
0
  6
Continuous
 62
     7
370
    25
100
AcDbPolyline
 90
       40
 70
   128
 43
0.0
 10
930.8882361771
 20
-668.8269213465
 10
930.7600403176
 20
-670.734680246
 10
930.3787729447
 20
-672.7410409809
 10
929.754308683
 20
-674.794039862
 10
928.9028208289
 20
-676.8405052968
 10
927.8463624705
 20
-678.8274349054
 10
926.6122953244
 20
-680.7033682547
 10
925.2325810814
 20
-682.4197196562
 10
923.7429536158
 20
-683.9320365103
 10
922.1819934963
 20
-685.2011506048
 10
920.5901287702
 20
-686.1941925513
 10
919.0085878977
 20
-686.885443085
 10
917.4783319567
 20
-687.2569991802
 10
916.0389937722
 20
-687.2992377291
 10
914.7278514471
 20
-687.0110647756
 10
913.578862879
 20
-686.3999438478
 10
912.6217862682
 20
-685.4817026566
 10
911.8814093962
 20
-684.2801231667
 10
911.3769076351
 20
-682.8263256556
 10
911.1213473156
 20
-681.1579627153
 10
911.1213473156
 20
-679.3182440695
 10
911.3769076351
 20
-677.3548174648
 10
911.8814093962
 20
-675.318534619
 10
912.6217862682
 20
-673.2621341881
 10
913.578862879
 20
-671.238875863
 10
914.7278514471
 20
-669.3011609718
 10
916.0389937722
 20
-667.4991753121
 10
917.4783319567
 20
-665.8795893662
 10
919.0085878977
 20
-664.4843495591
 10
920.5901287702
 20
-663.3495918691
 10
922.1819934963
 20
-662.5047059242
 10
923.7429536158
 20
-661.9715738267
 10
925.2325810814
 20
-661.7640034177
 10
926.6122953244
 20
-661.887370662
 10
927.8463624705
 20
-662.3384804126
 10
928.9028208289
 20
-663.1056491639
 10
929.754308683
 20
-664.1690076484
 10
930.3787729447
 20
-665.5010154397
 10
930.7600403176
 20
-667.0671742358
 10
930.8882361771
 20
-668.8269213465
  0
LWPOLYLINE
  5
1D9
330
1F
100
AcDbEntity
  8
0
  6
Continuous
 62
     7
370
    25
100
AcDbPolyline
 90
       40
 70
   128
 43
0.0
 10
791.5302403894
 20
-749.2765798956
 10
791.40204453
 20
-751.1843387951
 10
791.0207771571
 20
-753.19069953
 10
790.3963128954
 20
-755.2436984111
 10
789.5448250412
 20
-757.2901638459
 10
788.4883666828
 20
-759.2770934545
 10
787.2542995367
 20
-761.1530268038
 10
785.8745852938
 20
-762.8693782053
 10
784.3849578281
 20
-764.3816950594
 10
782.8239977087
 20
-765.6508091539
 10
781.2321329826
 20
-766.6438511004
 10
779.6505921101
 20
-767.3351016341
 10
778.120336169
 20
-767.7066577292
 10
776.6809979845
 20
-767.7488962782
 10
775.3698556594
 20
-767.4607233247
 10
774.2208670913
 20
-766.8496023968
 10
773.2637904805
 20
-765.9313612057
 10
772.5234136085
 20
-764.7297817158
 10
772.0189118475
 20
-763.2759842047
 10
771.7633515279
 20
-761.6076212644
 10
771.7633515279
 20
-759.7679026186
 10
772.0189118475
 20
-757.8044760139
 10
772.5234136085
 20
-755.7681931681
 10
773.2637904805
 20
-753.7117927371
 10
774.2208670913
 20
-751.6885344121
 10
775.3698556594
 20
-749.7508195209
 10
776.6809979845
 20
-747.9488338612
 10
778.120336169
 20
-746.3292479152
 10
779.6505921101
 20
-744.9340081082
 10
781.2321329826
 20
-743.7992504181
 10
782.8239977087
 20
-742.9543644733
 10
784.3849578281
 20
-742.4212323757
 10
785.8745852938
 20
-742.2136619668
 10
787.2542995367
 20
-742.3370292111
 10
788.4883666828
 20
-742.7881389617
 10
789.5448250412
 20
-743.555307713
 10
790.3963128954
 20
-744.6186661974
 10
791.0207771571
 20
-745.9506739888
 10
791.40204453
 20
-747.5168327849
 10
791.5302403894
 20
-749.2765798956
  0
LWPOLYLINE
  5
1DA
330
1F
100
AcDbEntity
  8
0
  6
Continuous
 62
     7
370
    25
100
AcDbPolyline
 90
       40
 70
   128
 43
0.0
 10
692.9892565554
 20
-692.3715879765
 10
692.861060696
 20
-694.279346876
 10
692.479793323
 20
-696.2857076109
 10
691.8553290613
 20
-698.3387064921
 10
691.0038412072
 20
-700.3851719269
 10
689.9473828488
 20
-702.3721015355
 10
688.7133157027
 20
-704.2480348847
 10
687.3336014598
 20
-705.9643862863
 10
685.8439739941
 20
-707.4767031404
 10
684.2830138747
 20
-708.7458172349
 10
682.6911491486
 20
-709.7388591813
 10
681.1096082761
 20
-710.430109715
 10
679.579352335
 20
-710.8016658102
 10
678.1400141505
 20
-710.8439043591
 10
676.8288718254
 20
-710.5557314056
 10
675.6798832573
 20
-709.9446104778
 10
674.7228066465
 20
-709.0263692867
 10
673.9824297745
 20
-707.8247897967
 10
673.4779280134
 20
-706.3709922857
 10
673.2223676939
 20
-704.7026293453
 10
673.2223676939
 20
-702.8629106995
 10
673.4779280134
 20
-700.8994840949
 10
673.9824297745
 20
-698.863201249
 10
674.7228066465
 20
-696.8068008181
 10
675.6798832573
 20
-694.7835424931
 10
676.8288718254
 20
-692.8458276018
 10
678.1400141505
 20
-691.0438419422
 10
679.579352335
 20
-689.4242559962
 10
681.1096082761
 20
-688.0290161891
 10
682.6911491486
 20
-686.8942584991
 10
684.2830138747
 20
-686.0493725542
 10
685.8439739941
 20
-685.5162404567
 10
687.3336014598
 20
-685.3086700478
 10
688.7133157027
 20
-685.432037292
 10
689.9473828488
 20
-685.8831470426
 10
691.0038412072
 20
-686.650315794
 10
691.8553290613
 20
-687.7136742784
 10
692.479793323
 20
-689.0456820697
 10
692.861060696
 20
-690.6118408658
 10
692.9892565554
 20
-692.3715879765
  0
LWPOLYLINE
  5
1DB
330
1F
100
AcDbEntity
  8
0
  6
Continuous
 62
     7
370
    25
100
AcDbPolyline
 90
       40
 70
   128
 43
0.0
 10
692.9892565554
 20
-531.4461180888
 10
692.861060696
 20
-533.3538769883
 10
692.4797933231
 20
-535.3602377232
 10
691.8553290614
 20
-537.4132366044
 10
691.0038412072
 20
-539.4597020391
 10
689.9473828488
 20
-541.4466316478
 10
688.7133157027
 20
-543.322564997
 10
687.3336014598
 20
-545.0389163986
 10
685.8439739941
 20
-546.5512332527
 10
684.2830138747
 20
-547.8203473471
 10
682.6911491486
 20
-548.8133892936
 10
681.1096082761
 20
-549.5046398273
 10
679.579352335
 20
-549.8761959225
 10
678.1400141505
 20
-549.9184344714
 10
676.8288718254
 20
-549.6302615179
 10
675.6798832573
 20
-549.0191405901
 10
674.7228066465
 20
-548.1008993989
 10
673.9824297745
 20
-546.899319909
 10
673.4779280135
 20
-545.4455223979
 10
673.2223676939
 20
-543.7771594576
 10
673.2223676939
 20
-541.9374408118
 10
673.4779280135
 20
-539.9740142071
 10
673.9824297745
 20
-537.9377313613
 10
674.7228066465
 20
-535.8813309304
 10
675.6798832573
 20
-533.8580726054
 10
676.8288718254
 20
-531.9203577141
 10
678.1400141505
 20
-530.1183720545
 10
679.579352335
 20
-528.4987861085
 10
681.1096082761
 20
-527.1035463014
 10
682.6911491486
 20
-525.9687886114
 10
684.2830138747
 20
-525.1239026665
 10
685.8439739941
 20
-524.590770569
 10
687.3336014598
 20
-524.3832001601
 10
688.7133157027
 20
-524.5065674043
 10
689.9473828488
 20
-524.9576771549
 10
691.0038412072
 20
-525.7248459062
 10
691.8553290614
 20
-526.7882043907
 10
692.4797933231
 20
-528.120212182
 10
692.861060696
 20
-529.6863709781
 10
692.9892565554
 20
-531.4461180888
  0
LWPOLYLINE
  5
1DC
330
1F
100
AcDbEntity
  8
0
  6
Continuous
 62
     7
370
    25
100
AcDbPolyline
 90
       40
 70
   128
 43
0.0
 10
791.5302403895
 20
-360.7681279614
 10
791.40204453
 20
-362.6758868609
 10
791.0207771571
 20
-364.6822475958
 10
790.3963128954
 20
-366.7352464769
 10
789.5448250413
 20
-368.7817119117
 10
788.4883666829
 20
-370.7686415203
 10
787.2542995368
 20
-372.6445748696
 10
785.8745852938
 20
-374.3609262711
 10
784.3849578282
 20
-375.8732431252
 10
782.8239977087
 20
-377.1423572197
 10
781.2321329826
 20
-378.1353991662
 10
779.6505921101
 20
-378.8266496999
 10
778.1203361691
 20
-379.1982057951
 10
776.6809979845
 20
-379.240444344
 10
775.3698556595
 20
-378.9522713905
 10
774.2208670913
 20
-378.3411504626
 10
773.2637904805
 20
-377.4229092715
 10
772.5234136086
 20
-376.2213297816
 10
772.0189118475
 20
-374.7675322705
 10
771.7633515279
 20
-373.0991693302
 10
771.7633515279
 20
-371.2594506844
 10
772.0189118475
 20
-369.2960240797
 10
772.5234136086
 20
-367.2597412339
 10
773.2637904805
 20
-365.2033408029
 10
774.2208670913
 20
-363.1800824779
 10
775.3698556595
 20
-361.2423675867
 10
776.6809979845
 20
-359.440381927
 10
778.1203361691
 20
-357.820795981
 10
779.6505921101
 20
-356.425556174
 10
781.2321329826
 20
-355.290798484
 10
782.8239977087
 20
-354.4459125391
 10
784.3849578282
 20
-353.9127804416
 10
785.8745852938
 20
-353.7052100326
 10
787.2542995368
 20
-353.8285772769
 10
788.4883666829
 20
-354.2796870275
 10
789.5448250413
 20
-355.0468557788
 10
790.3963128954
 20
-356.1102142633
 10
791.0207771571
 20
-357.4422220546
 10
791.40204453
 20
-359.0083808507
 10
791.5302403895
 20
-360.7681279614
  0
ARC
  5
1DD
330
1F
100
AcDbEntity
  8
0
  6
Continuous
 62
     7
370
    25
100
AcDbCircle
 10
922.2531306786
 20
-399.1777925538
 30
0.0
 40
74.4042030615421
100
AcDbArc
 50
36.6928703746
 51
85.8198026459
  0
ARC
  5
1DE
330
1F
100
AcDbEntity
  8
0
  6
Continuous
 62
     7
370
    25
100
AcDbCircle
 10
781.4473919836
 20
-643.1346925549
 30
0.0
 40
73.8484054680281
100
AcDbArc
 50
217.1729721042
 51
261.7181774388
  0
ARC
  5
1DF
330
1F
100
AcDbEntity
  8
0
  6
Continuous
 62
     7
370
    25
100
AcDbCircle
 10
812.4629471642
 20
-654.7221459573
 30
0.0
 40
79.52664669455338
100
AcDbArc
 50
216.6256708695
 51
227.5661450127
  0
ARC
  5
1E0
330
1F
100
AcDbEntity
  8
0
  6
Continuous
 62
     7
370
    25
100
AcDbCircle
 10
948.0511317034
 20
-419.9157865059
 30
0.0
 40
79.69543001337807
100
AcDbArc
 50
72.4362906901
 51
84.8126189754
  0
LINE
  5
1E1
330
1F
100
AcDbEntity
  8
0
  6
Continuous
 62
     7
370
    25
100
AcDbLine
 10
987.5124084053
 20
-584.1651557206
 30
0.0
 11
987.26632189
 21
-584.0119052397
 31
0.0
  0
LINE
  5
1E2
330
1F
100
AcDbEntity
  8
0
  6
Continuous
 62
     7
370
    25
100
AcDbLine
 10
1026.9823901332
 20
-493.1666073277
 30
0.0
 11
1026.7363036178
 21
-493.0133568468
 31
0.0
  0
LINE
  5
1E3
330
1F
100
AcDbEntity
  8
0
  6
Continuous
 62
     7
370
    25
100
AcDbLine
 10
928.4414062991
 20
-663.8445974551
 30
0.0
 11
928.1953197838
 21
-663.6913469742
 31
0.0
  0
LINE
  5
1E4
330
1F
100
AcDbEntity
  8
0
  6
Continuous
 62
     7
370
    25
100
AcDbLine
 10
1040.8424045609
 20
-404.7026563654
 30
0.0
 11
1040.5963180455
 21
-404.5494058845
 31
0.0
  0
LINE
  5
1E5
330
1F
100
AcDbEntity
  8
0
  6
Continuous
 62
     7
370
    25
100
AcDbLine
 10
858.7624084053
 20
-720.0744598232
 30
0.0
 11
858.51632189
 21
-719.9212093423
 31
0.0
  0
LINE
  5
1E6
330
1F
100
AcDbEntity
  8
0
  6
Continuous
 62
     7
370
    25
100
AcDbLine
 10
1026.9823901332
 20
-332.24113744
 30
0.0
 11
1026.7363036178
 21
-332.0878869591
 31
0.0
  0
LINE
  5
1E7
330
1F
100
AcDbEntity
  8
0
  6
Continuous
 62
     7
370
    25
100
AcDbLine
 10
789.0834105115
 20
-744.2942560042
 30
0.0
 11
788.8373239961
 21
-744.1410055233
 31
0.0
  0
LINE
  5
1E8
330
1F
100
AcDbEntity
  8
0
  6
Continuous
 62
     7
370
    25
100
AcDbLine
 10
987.5124084053
 20
-286.8136599425
 30
0.0
 11
987.26632189
 21
-286.6604094616
 31
0.0
  0
LINE
  5
1E9
330
1F
100
AcDbEntity
  8
0
  6
Continuous
 62
     7
370
    25
100
AcDbLine
 10
730.0124084053
 20
-732.8167415826
 30
0.0
 11
729.76632189
 21
-732.6634911017
 31
0.0
  0
LINE
  5
1EA
330
1F
100
AcDbEntity
  8
0
  6
Continuous
 62
     7
370
    25
100
AcDbLine
 10
928.4414062992
 20
-275.3361455209
 30
0.0
 11
928.1953197838
 21
-275.18289504
 31
0.0
  0
LINE
  5
1EB
330
1F
100
AcDbEntity
  8
0
  6
Continuous
 62
     7
370
    25
100
AcDbLine
 10
690.5424266775
 20
-687.3892640851
 30
0.0
 11
690.2963401621
 21
-687.2360136042
 31
0.0
  0
LINE
  5
1EC
330
1F
100
AcDbEntity
  8
0
  6
Continuous
 62
     7
370
    25
100
AcDbLine
 10
858.7624084053
 20
-299.5559417019
 30
0.0
 11
858.51632189
 21
-299.402691221
 31
0.0
  0
LINE
  5
1ED
330
1F
100
AcDbEntity
  8
0
  6
Continuous
 62
     7
370
    25
100
AcDbLine
 10
676.6824122498
 20
-614.9277451597
 30
0.0
 11
676.4363257344
 21
-614.7744946788
 31
0.0
  0
LINE
  5
1EE
330
1F
100
AcDbEntity
  8
0
  6
Continuous
 62
     7
370
    25
100
AcDbLine
 10
789.0834105115
 20
-355.78580407
 30
0.0
 11
788.8373239962
 21
-355.6325535891
 31
0.0
  0
LINE
  5
1EF
330
1F
100
AcDbEntity
  8
0
  6
Continuous
 62
     7
370
    25
100
AcDbLine
 10
690.5424266775
 20
-526.4637941974
 30
0.0
 11
690.2963401621
 21
-526.3105437165
 31
0.0
  0
LINE
  5
1F0
330
1F
100
AcDbEntity
  8
0
  6
Continuous
 62
     7
370
    25
100
AcDbLine
 10
730.0124084053
 20
-435.4652458045
 30
0.0
 11
729.76632189
 21
-435.3119953236
 31
0.0
  0
LWPOLYLINE
  5
1F1
330
1F
100
AcDbEntity
  8
0
  6
Continuous
 62
     1
370
    25
100
AcDbPolyline
 90
       61
 70
   128
 43
0.0
 10
1053.8958361566
 20
-404.3783275299
 10
1053.7714791667
 20
-412.6314048688
 10
1053.3985614041
 20
-421.017893979
 10
1052.7775423018
 20
-429.5274627444
 10
1051.9091869526
 20
-438.1496274156
 10
1050.7945651661
 20
-446.8737655255
 10
1049.4350501512
 20
-455.6891289761
 10
1047.8323168243
 20
-464.5848572804
 10
1045.9883397454
 20
-473.549990942
 10
1043.9053906857
 20
-482.5734849577
 10
1041.5860358289
 20
-491.6442224245
 10
1039.0331326094
 20
-500.7510282355
 10
1036.2498261923
 20
-509.8826828481
 10
1033.2395455982
 20
-519.0279361058
 10
1030.0059994789
 20
-528.1755210989
 10
1026.5531715484
 20
-537.3141680447
 10
1022.8853156748
 20
-546.4326181724
 10
1019.0069506394
 20
-555.5196375935
 10
1014.9228545703
 20
-564.564031142
 10
1010.6380590549
 20
-573.5546561667
 10
1006.1578429415
 20
-582.480436259
 10
1001.4877258358
 20
-591.330374899
 10
996.6334613004
 20
-600.0935690031
 10
991.601029767
 20
-608.7592223567
 10
986.3966311678
 20
-617.3166589147
 10
981.0266772981
 20
-625.7553359547
 10
975.4977839162
 20
-634.0648570655
 10
969.8167625933
 20
-642.2349849556
 10
963.9906123214
 20
-650.2556540649
 10
958.0265108908
 20
-658.1169829661
 10
951.931806047
 20
-665.8092865382
 10
945.7140064382
 20
-673.3230878988
 10
939.3807723649
 20
-680.6491300791
 10
932.9399063422
 20
-687.7783874291
 10
926.3993434875
 20
-694.7020767365
 10
919.7671417439
 20
-701.4116680481
 10
913.0514719535
 20
-707.8988951782
 10
906.2606077904
 20
-714.155765893
 10
899.4029155681
 20
-720.1745717565
 10
892.4868439316
 20
-725.9478976278
 10
885.5209134493
 20
-731.468630796
 10
878.5137061155
 20
-736.7299697433
 10
871.4738547774
 20
-741.7254325242
 10
864.4100324992
 20
-746.4488647519
 10
857.3309418775
 20
-750.8944471794
 10
850.2453043193
 20
-755.0567028698
 10
843.1618492973
 20
-758.9305039432
 10
836.0893035955
 20
-762.5110778946
 10
829.0363805576
 20
-765.7940134734
 10
822.0117693523
 20
-768.7752661181
 10
815.0241242681
 20
-771.4511629391
 10
808.0820540516
 20
-773.818407244
 10
801.1941113012
 20
-775.8740825987
 10
794.3687819308
 20
-777.6156564206
 10
787.6144747145
 20
-779.0409830987
 10
780.9395109278
 20
-780.1483066373
 10
774.3521140952
 20
-780.9362628188
 10
767.8603998592
 20
-781.4038808848
 10
761.472365982
 20
-781.550584732
 10
755.1958824917
 20
-781.3761936219
 10
752.1120989927
 20
-781.1694595452
  0
LWPOLYLINE
  5
1F2
330
1F
100
AcDbEntity
  8
0
  6
Continuous
 62
     1
370
    25
100
AcDbPolyline
 90
       16
 70
   128
 43
0.0
 10
1027.0203334552
 20
-303.6750207308
 10
1030.005999479
 20
-308.1637522764
 10
1033.2395455982
 20
-313.5779643872
 10
1036.2498261923
 20
-319.2476216512
 10
1039.0331326094
 20
-325.1657390766
 10
1041.5860358289
 20
-331.3250255701
 10
1043.9053906857
 20
-337.7178929192
 10
1045.9883397454
 20
-344.3364651408
 10
1047.8323168243
 20
-351.1725881844
 10
1049.4350501512
 20
-358.2178399779
 10
1050.7945651661
 20
-365.4635408037
 10
1051.9091869526
 20
-372.9007639916
 10
1052.7775423018
 20
-380.5203469171
 10
1053.3985614041
 20
-388.3129022891
 10
1053.7714791667
 20
-396.2688297153
 10
1053.8958361566
 20
-404.3783275299
  0
LWPOLYLINE
  5
1F3
330
1F
100
AcDbEntity
  8
0
  6
Continuous
 62
     1
370
    25
100
AcDbPolyline
 90
       17
 70
   128
 43
0.0
 10
1080.7658938417
 20
-419.8900816545
 10
1080.6415368518
 20
-411.78058384
 10
1080.2686190892
 20
-403.8246564137
 10
1079.6475999869
 20
-396.0321010417
 10
1078.7792446376
 20
-388.4125181162
 10
1077.6646228512
 20
-380.9752949283
 10
1076.3051078363
 20
-373.7295941026
 10
1074.7023745094
 20
-366.684342309
 10
1072.8583974305
 20
-359.8482192655
 10
1070.7754483708
 20
-353.2296470439
 10
1068.456093514
 20
-346.8367796948
 10
1065.9031902945
 20
-340.6774932012
 10
1063.1198838774
 20
-334.7593757758
 10
1060.1096032833
 20
-329.0897185119
 10
1056.876057164
 20
-323.675506401
 10
1053.4232292335
 20
-318.5234097276
 10
1053.4179200498
 20
-318.5159277195
  0
LWPOLYLINE
  5
1F4
330
1F
100
AcDbEntity
  8
0
  6
Continuous
 62
     1
370
    25
100
AcDbPolyline
 90
       61
 70
   128
 43
0.0
 10
778.7841268846
 20
-796.6651311777
 10
782.0659401768
 20
-796.8879477465
 10
788.3424236671
 20
-797.0623388566
 10
794.7304575443
 20
-796.9156350094
 10
801.2221717803
 20
-796.4480169434
 10
807.8095686129
 20
-795.6600607619
 10
814.4845323996
 20
-794.5527372234
 10
821.2388396159
 20
-793.1274105452
 10
828.0641689863
 20
-791.3858367233
 10
834.9521117367
 20
-789.3301613687
 10
841.8941819532
 20
-786.9629170638
 10
848.8818270374
 20
-784.2870202427
 10
855.9064382427
 20
-781.305767598
 10
862.9593612806
 20
-778.0228320192
 10
870.0319069824
 20
-774.4422580678
 10
877.1153620044
 20
-770.5684569944
 10
884.2009995626
 20
-766.406201304
 10
891.2800901843
 20
-761.9606188765
 10
898.3439124625
 20
-757.2371866489
 10
905.3837638006
 20
-752.2417238679
 10
912.3909711344
 20
-746.9803849206
 10
919.3569016167
 20
-741.4596517525
 10
926.2729732532
 20
-735.6863258812
 10
933.1306654755
 20
-729.6675200176
 10
939.9215296386
 20
-723.4106493028
 10
946.637199429
 20
-716.9234221727
 10
953.2694011726
 20
-710.2138308612
 10
959.8099640273
 20
-703.2901415538
 10
966.25083005
 20
-696.1608842038
 10
972.5840641233
 20
-688.8348420234
 10
978.801863732
 20
-681.3210406628
 10
984.8965685759
 20
-673.6287370907
 10
990.8606700064
 20
-665.7674081895
 10
996.6868202783
 20
-657.7467390802
 10
1002.3678416013
 20
-649.5766111902
 10
1007.8967349832
 20
-641.2670900793
 10
1013.2666888529
 20
-632.8284130393
 10
1018.4710874521
 20
-624.2709764813
 10
1023.5035189855
 20
-615.6053231278
 10
1028.3577835209
 20
-606.8421290236
 10
1033.0279006266
 20
-597.9921903836
 10
1037.50811674
 20
-589.0664102913
 10
1041.7929122554
 20
-580.0757852666
 10
1045.8770083245
 20
-571.0313917182
 10
1049.7553733599
 20
-561.944372297
 10
1053.4232292335
 20
-552.8259221693
 10
1056.876057164
 20
-543.6872752235
 10
1060.1096032833
 20
-534.5396902304
 10
1063.1198838774
 20
-525.3944369727
 10
1065.9031902945
 20
-516.2627823601
 10
1068.456093514
 20
-507.1559765491
 10
1070.7754483708
 20
-498.0852390824
 10
1072.8583974305
 20
-489.0617450667
 10
1074.7023745094
 20
-480.096611405
 10
1076.3051078363
 20
-471.2008831007
 10
1077.6646228512
 20
-462.3855196501
 10
1078.7792446377
 20
-453.6613815402
 10
1079.6475999869
 20
-445.039216869
 10
1080.2686190892
 20
-436.5296481036
 10
1080.6415368518
 20
-428.1431589935
 10
1080.7658938417
 20
-419.8900816545
  0
LWPOLYLINE
  5
1F5
330
1F
100
AcDbEntity
  8
0
  6
Continuous
 62
     1
370
    25
100
AcDbPolyline
 90
       68
 70
   128
 43
0.0
 10
927.6767134218
 20
-324.971524736
 10
927.1395906813
 20
-324.9273922286
 10
921.7215864476
 20
-324.6649692412
 10
916.1890575151
 20
-324.724993716
 10
910.5510938144
 20
-325.1073670329
 10
904.8169585049
 20
-325.8114609535
 10
898.9960727561
 20
-326.8361186535
 10
893.0980002679
 20
-328.1796566229
 10
887.1324315578
 20
-329.8398674323
 10
881.1091680396
 20
-331.8140233597
 10
875.0381059196
 20
-334.0988808721
 10
868.9292199367
 20
-336.6906859547
 10
862.7925469746
 20
-339.5851802785
 10
856.6381695709
 20
-342.7776081969
 10
850.4761993514
 20
-346.2627245593
 10
844.3167604172
 20
-350.0348033285
 10
838.1699727101
 20
-354.0876469892
 10
832.0459353863
 20
-358.4145967297
 10
825.9547102229
 20
-363.008543383
 10
819.906305087
 20
-367.8619391069
 10
813.9106574923
 20
-372.9668097849
 10
807.977618272
 20
-378.3147681279
 10
802.116935394
 20
-383.8970274544
 10
796.3382379449
 20
-389.704416127
 10
790.6510203094
 20
-395.7273926212
 10
785.0646265712
 20
-401.9560612026
 10
779.5882351605
 20
-408.3801881851
 10
774.2308437739
 20
-414.9892187448
 10
769.0012545916
 20
-421.772294262
 10
763.9080598148
 20
-428.7182701612
 10
758.959627549
 20
-435.8157342225
 10
754.1640880557
 20
-443.053025331
 10
749.5293203934
 20
-450.4182526363
 10
745.0629394735
 20
-457.8993150894
 10
740.7722835479
 20
-465.4839213242
 10
736.664402153
 20
-473.1596098528
 10
732.7460445273
 20
-480.9137695389
 10
729.0236485221
 20
-488.7336603186
 10
725.5033300241
 20
-496.6064341318
 10
722.1908729074
 20
-504.5191560318
 10
719.0917195304
 20
-512.4588254374
 10
716.210961794
 20
-520.4123974926
 10
713.5533327755
 20
-528.3668044993
 10
711.1231989524
 20
-536.3089773877
 10
708.9245530283
 20
-544.2258671886
 10
706.9610073726
 20
-552.1044664729
 10
705.2357880856
 20
-559.9318307227
 10
703.7517296981
 20
-567.6950995989
 10
702.5112705142
 20
-575.3815180713
 10
701.5164486051
 20
-582.9784573745
 10
700.7688984604
 20
-590.4734357572
 10
700.2698483032
 20
-597.8541389894
 10
700.0201180716
 20
-605.1084405953
 10
700.0201180716
 20
-612.2244217763
 10
700.2698483032
 20
-619.1903909941
 10
700.7688984604
 20
-625.9949031794
 10
701.5164486051
 20
-632.6267785367
 10
702.5112705142
 20
-639.0751209122
 10
703.7517296981
 20
-645.3293356961
 10
705.2357880856
 20
-651.3791472302
 10
706.9610073726
 20
-657.2146156899
 10
708.9245530283
 20
-662.8261534159
 10
711.1231989524
 20
-668.2045406663
 10
713.5533327755
 20
-673.3409407652
 10
716.210961794
 20
-678.2269146206
 10
719.0917195304
 20
-682.8544345902
 10
722.1908729074
 20
-687.215897671
 10
722.6038722421
 20
-687.7556200958
  0
LWPOLYLINE
  5
1F6
330
1F
100
AcDbEntity
  8
0
  6
Continuous
 62
     1
370
    25
100
AcDbPolyline
 90
       67
 70
   128
 43
0.0
 10
748.6388160779
 20
-702.1665115402
 10
745.9617772155
 20
-698.3661887149
 10
743.0810194791
 20
-693.7386687452
 10
740.4233904606
 20
-688.8526948898
 10
737.9932566375
 20
-683.716294791
 10
735.7946107134
 20
-678.3379075405
 10
733.8310650576
 20
-672.7263698145
 10
732.1058457707
 20
-666.8909013548
 10
730.6217873832
 20
-660.8410898208
 10
729.3813281993
 20
-654.5868750368
 10
728.3865062901
 20
-648.1385326613
 10
727.6389561455
 20
-641.5066573041
 10
727.1399059883
 20
-634.7021451187
 10
726.8901757566
 20
-627.736175901
 10
726.8901757566
 20
-620.62019472
 10
727.1399059883
 20
-613.3658931141
 10
727.6389561455
 20
-605.9851898818
 10
728.3865062901
 20
-598.4902114992
 10
729.3813281993
 20
-590.893272196
 10
730.6217873832
 20
-583.2068537236
 10
732.1058457707
 20
-575.4435848473
 10
733.8310650576
 20
-567.6162205976
 10
735.7946107134
 20
-559.7376213133
 10
737.9932566375
 20
-551.8207315123
 10
740.4233904606
 20
-543.8785586239
 10
743.0810194791
 20
-535.9241516172
 10
745.9617772155
 20
-527.9705795621
 10
749.0609305925
 20
-520.0309101565
 10
752.3733877092
 20
-512.1181882564
 10
755.8937062071
 20
-504.2454144432
 10
759.6161022124
 20
-496.4255236635
 10
763.5344598381
 20
-488.6713639774
 10
767.6423412329
 20
-480.9956754489
 10
771.9329971586
 20
-473.411069214
 10
776.3993780785
 20
-465.9300067609
 10
781.0341457408
 20
-458.5647794556
 10
785.8296852341
 20
-451.3274883472
 10
790.7781174998
 20
-444.2300242859
 10
795.8713122767
 20
-437.2840483866
 10
801.100901459
 20
-430.5009728695
 10
806.4582928455
 20
-423.8919423097
 10
811.9346842563
 20
-417.4678153273
 10
817.5210779945
 20
-411.2391467459
 10
823.20829563
 20
-405.2161702516
 10
828.9869930791
 20
-399.408781579
 10
834.8476759571
 20
-393.8265222526
 10
840.7807151774
 20
-388.4785639096
 10
846.7763627721
 20
-383.3736932316
 10
852.824767908
 20
-378.5202975077
 10
858.9159930714
 20
-373.9263508543
 10
865.0400303952
 20
-369.5994011138
 10
871.1868181023
 20
-365.5465574532
 10
877.3462570365
 20
-361.7744786839
 10
883.5082272559
 20
-358.2893623216
 10
889.6626046597
 20
-355.0969344032
 10
895.7992776218
 20
-352.2024400794
 10
901.9081636047
 20
-349.6106349968
 10
907.9792257247
 20
-347.3257774843
 10
914.0024892429
 20
-345.3516215569
 10
919.9680579529
 20
-343.6914107475
 10
925.8661304412
 20
-342.3478727781
 10
931.68701619
 20
-341.3232150782
 10
937.4211514994
 20
-340.6191211575
 10
943.0591152002
 20
-340.2367478406
 10
948.5916441327
 20
-340.1767233658
 10
954.0096483664
 20
-340.4391463532
 10
955.2566538846
 20
-340.5467622262
  0
LWPOLYLINE
  5
1F7
330
1F
100
AcDbEntity
  8
0
  6
Continuous
 62
     1
370
    25
100
AcDbPolyline
 90
       21
 70
   128
 43
0.0
 10
987.26632189
 20
-584.0119052397
 10
986.9926852248
 20
-583.8667105602
 10
985.7946098982
 20
-583.4815287699
 10
984.4593903915
 20
-583.4179204866
 10
983.0234480122
 20
-583.6776207784
 10
981.5259515251
 20
-584.2535456984
 10
980.0077487306
 20
-585.129985516
 10
978.5102522435
 20
-586.2830332379
 10
977.0743098642
 20
-587.6812367278
 10
975.7390903575
 20
-589.2864566394
 10
974.541015031
 20
-591.054906758
 10
973.5127642563
 20
-592.9383483745
 10
972.6823860343
 20
-594.8854061112
 10
972.072530918
 20
-596.8429693087
 10
971.6998341655
 20
-598.757640746
 10
971.5744619724
 20
-600.5771931775
 10
971.6998341655
 20
-602.2519939559
 10
972.072530918
 20
-603.736358882
 10
972.6823860343
 20
-604.9897983501
 10
973.5127642563
 20
-605.9781217988
 10
974.3188011075
 20
-606.5583953891
  0
LWPOLYLINE
  5
1F8
330
1F
100
AcDbEntity
  8
0
  6
Continuous
 62
     1
370
    25
100
AcDbPolyline
 90
       21
 70
   128
 43
0.0
 10
1026.7363036178
 20
-493.0133568468
 10
1026.4626669526
 20
-492.8681621673
 10
1025.2645916261
 20
-492.482980377
 10
1023.9293721194
 20
-492.4193720937
 10
1022.49342974
 20
-492.6790723855
 10
1020.9959332529
 20
-493.2549973055
 10
1019.4777304585
 20
-494.1314371231
 10
1017.9802339714
 20
-495.284484845
 10
1016.544291592
 20
-496.6826883349
 10
1015.2090720853
 20
-498.2879082465
 10
1014.0109967588
 20
-500.0563583652
 10
1012.9827459842
 20
-501.9397999816
 10
1012.1523677621
 20
-503.8868577183
 10
1011.5425126459
 20
-505.8444209159
 10
1011.1698158933
 20
-507.7590923532
 10
1011.0444437003
 20
-509.5786447846
 10
1011.1698158933
 20
-511.253445563
 10
1011.5425126459
 20
-512.7378104891
 10
1012.1523677621
 20
-513.9912499572
 10
1012.9827459842
 20
-514.979573406
 10
1013.7887828353
 20
-515.5598469962
  0
LWPOLYLINE
  5
1F9
330
1F
100
AcDbEntity
  8
0
  6
Continuous
 62
     1
370
    25
100
AcDbPolyline
 90
       21
 70
   128
 43
0.0
 10
928.1953197838
 20
-663.6913469742
 10
927.9216831186
 20
-663.5461522948
 10
926.723607792
 20
-663.1609705044
 10
925.3883882853
 20
-663.0973622211
 10
923.952445906
 20
-663.3570625129
 10
922.4549494189
 20
-663.9329874329
 10
920.9367466245
 20
-664.8094272506
 10
919.4392501373
 20
-665.9624749724
 10
918.003307758
 20
-667.3606784623
 10
916.6680882513
 20
-668.9658983739
 10
915.4700129248
 20
-670.7343484926
 10
914.4417621501
 20
-672.617790109
 10
913.6113839281
 20
-674.5648478458
 10
913.0015288119
 20
-676.5224110433
 10
912.6288320593
 20
-678.4370824806
 10
912.5034598662
 20
-680.256634912
 10
912.6288320593
 20
-681.9314356905
 10
913.0015288119
 20
-683.4158006166
 10
913.6113839281
 20
-684.6692400846
 10
914.4417621501
 20
-685.6575635334
 10
915.2477990013
 20
-686.2378371236
  0
LWPOLYLINE
  5
1FA
330
1F
100
AcDbEntity
  8
0
  6
Continuous
 62
     1
370
    25
100
AcDbPolyline
 90
       21
 70
   128
 43
0.0
 10
1040.5963180455
 20
-404.5494058845
 10
1040.3226813803
 20
-404.404211205
 10
1039.1246060538
 20
-404.0190294147
 10
1037.7893865471
 20
-403.9554211314
 10
1036.3534441677
 20
-404.2151214232
 10
1034.8559476806
 20
-404.7910463432
 10
1033.3377448862
 20
-405.6674861608
 10
1031.8402483991
 20
-406.8205338827
 10
1030.4043060197
 20
-408.2187373726
 10
1029.069086513
 20
-409.8239572842
 10
1027.8710111865
 20
-411.5924074029
 10
1026.8427604119
 20
-413.4758490193
 10
1026.0123821898
 20
-415.422906756
 10
1025.4025270736
 20
-417.3804699536
 10
1025.029830321
 20
-419.2951413909
 10
1024.904458128
 20
-421.1146938223
 10
1025.029830321
 20
-422.7894946007
 10
1025.4025270736
 20
-424.2738595268
 10
1026.0123821898
 20
-425.5272989949
 10
1026.8427604119
 20
-426.5156224437
 10
1027.6487972631
 20
-427.0958960339
  0
LWPOLYLINE
  5
1FB
330
1F
100
AcDbEntity
  8
0
  6
Continuous
 62
     1
370
    25
100
AcDbPolyline
 90
       21
 70
   128
 43
0.0
 10
858.51632189
 20
-719.9212093423
 10
858.2426852247
 20
-719.7760146628
 10
857.0446098982
 20
-719.3908328725
 10
855.7093903915
 20
-719.3272245892
 10
854.2734480122
 20
-719.586924881
 10
852.775951525
 20
-720.162849801
 10
851.2577487306
 20
-721.0392896186
 10
849.7602522435
 20
-722.1923373405
 10
848.3243098642
 20
-723.5905408304
 10
846.9890903575
 20
-725.195760742
 10
845.7910150309
 20
-726.9642108606
 10
844.7627642563
 20
-728.8476524771
 10
843.9323860342
 20
-730.7947102138
 10
843.322530918
 20
-732.7522734113
 10
842.9498341655
 20
-734.6669448486
 10
842.8244619724
 20
-736.4864972801
 10
842.9498341655
 20
-738.1612980585
 10
843.322530918
 20
-739.6456629846
 10
843.9323860342
 20
-740.8991024527
 10
844.7627642563
 20
-741.8874259014
 10
845.5688011075
 20
-742.4676994917
  0
LWPOLYLINE
  5
1FC
330
1F
100
AcDbEntity
  8
0
  6
Continuous
 62
     1
370
    25
100
AcDbPolyline
 90
       21
 70
   128
 43
0.0
 10
1026.7363036178
 20
-332.0878869591
 10
1026.4626669526
 20
-331.9426922796
 10
1025.2645916261
 20
-331.5575104893
 10
1023.9293721194
 20
-331.493902206
 10
1022.49342974
 20
-331.7536024978
 10
1020.9959332529
 20
-332.3295274178
 10
1019.4777304585
 20
-333.2059672354
 10
1017.9802339714
 20
-334.3590149573
 10
1016.544291592
 20
-335.7572184472
 10
1015.2090720854
 20
-337.3624383588
 10
1014.0109967588
 20
-339.1308884774
 10
1012.9827459842
 20
-341.0143300939
 10
1012.1523677621
 20
-342.9613878306
 10
1011.5425126459
 20
-344.9189510281
 10
1011.1698158933
 20
-346.8336224654
 10
1011.0444437003
 20
-348.6531748969
 10
1011.1698158933
 20
-350.3279756753
 10
1011.5425126459
 20
-351.8123406014
 10
1012.1523677621
 20
-353.0657800695
 10
1012.9827459842
 20
-354.0541035182
 10
1013.7887828354
 20
-354.6343771085
  0
LWPOLYLINE
  5
1FD
330
1F
100
AcDbEntity
  8
0
  6
Continuous
 62
     1
370
    25
100
AcDbPolyline
 90
       21
 70
   128
 43
0.0
 10
788.8373239961
 20
-744.1410055233
 10
788.5636873309
 20
-743.9958108438
 10
787.3656120044
 20
-743.6106290535
 10
786.0303924977
 20
-743.5470207702
 10
784.5944501183
 20
-743.806721062
 10
783.0969536312
 20
-744.382645982
 10
781.5787508368
 20
-745.2590857996
 10
780.0812543497
 20
-746.4121335215
 10
778.6453119703
 20
-747.8103370114
 10
777.3100924636
 20
-749.415556923
 10
776.1120171371
 20
-751.1840070417
 10
775.0837663625
 20
-753.0674486581
 10
774.2533881404
 20
-755.0145063948
 10
773.6435330242
 20
-756.9720695924
 10
773.2708362716
 20
-758.8867410297
 10
773.1454640786
 20
-760.7062934611
 10
773.2708362716
 20
-762.3810942395
 10
773.6435330242
 20
-763.8654591656
 10
774.2533881404
 20
-765.1188986337
 10
775.0837663625
 20
-766.1072220825
 10
775.8898032136
 20
-766.6874956727
  0
LWPOLYLINE
  5
1FE
330
1F
100
AcDbEntity
  8
0
  6
Continuous
 62
     1
370
    25
100
AcDbPolyline
 90
       21
 70
   128
 43
0.0
 10
987.26632189
 20
-286.6604094616
 10
986.9926852248
 20
-286.5152147822
 10
985.7946098982
 20
-286.1300329919
 10
984.4593903915
 20
-286.0664247085
 10
983.0234480122
 20
-286.3261250003
 10
981.5259515251
 20
-286.9020499203
 10
980.0077487307
 20
-287.778489738
 10
978.5102522436
 20
-288.9315374598
 10
977.0743098642
 20
-290.3297409497
 10
975.7390903575
 20
-291.9349608613
 10
974.541015031
 20
-293.70341098
 10
973.5127642563
 20
-295.5868525965
 10
972.6823860343
 20
-297.5339103332
 10
972.0725309181
 20
-299.4914735307
 10
971.6998341655
 20
-301.406144968
 10
971.5744619724
 20
-303.2256973994
 10
971.6998341655
 20
-304.9004981779
 10
972.0725309181
 20
-306.384863104
 10
972.6823860343
 20
-307.638302572
 10
973.5127642563
 20
-308.6266260208
 10
974.3188011075
 20
-309.206899611
  0
LWPOLYLINE
  5
1FF
330
1F
100
AcDbEntity
  8
0
  6
Continuous
 62
     1
370
    25
100
AcDbPolyline
 90
       21
 70
   128
 43
0.0
 10
729.76632189
 20
-732.6634911017
 10
729.4926852247
 20
-732.5182964222
 10
728.2946098982
 20
-732.1331146319
 10
726.9593903915
 20
-732.0695063486
 10
725.5234480121
 20
-732.3292066404
 10
724.025951525
 20
-732.9051315604
 10
722.5077487306
 20
-733.781571378
 10
721.0102522435
 20
-734.9346190999
 10
719.5743098642
 20
-736.3328225898
 10
718.2390903575
 20
-737.9380425014
 10
717.0410150309
 20
-739.7064926201
 10
716.0127642563
 20
-741.5899342365
 10
715.1823860342
 20
-743.5369919732
 10
714.572530918
 20
-745.4945551708
 10
714.1998341654
 20
-747.4092266081
 10
714.0744619724
 20
-749.2287790395
 10
714.1998341654
 20
-750.9035798179
 10
714.572530918
 20
-752.387944744
 10
715.1823860342
 20
-753.6413842121
 10
716.0127642563
 20
-754.6297076609
 10
716.8188011075
 20
-755.2099812511
  0
LWPOLYLINE
  5
200
330
1F
100
AcDbEntity
  8
0
  6
Continuous
 62
     1
370
    25
100
AcDbPolyline
 90
       21
 70
   128
 43
0.0
 10
928.1953197838
 20
-275.18289504
 10
927.9216831186
 20
-275.0377003606
 10
926.723607792
 20
-274.6525185703
 10
925.3883882854
 20
-274.5889102869
 10
923.952445906
 20
-274.8486105787
 10
922.4549494189
 20
-275.4245354987
 10
920.9367466245
 20
-276.3009753164
 10
919.4392501374
 20
-277.4540230382
 10
918.003307758
 20
-278.8522265281
 10
916.6680882513
 20
-280.4574464397
 10
915.4700129248
 20
-282.2258965584
 10
914.4417621502
 20
-284.1093381749
 10
913.6113839281
 20
-286.0563959116
 10
913.0015288119
 20
-288.0139591091
 10
912.6288320593
 20
-289.9286305464
 10
912.5034598663
 20
-291.7481829778
 10
912.6288320593
 20
-293.4229837563
 10
913.0015288119
 20
-294.9073486824
 10
913.6113839281
 20
-296.1607881504
 10
914.4417621502
 20
-297.1491115992
 10
915.2477990013
 20
-297.7293851894
  0
LWPOLYLINE
  5
201
330
1F
100
AcDbEntity
  8
0
  6
Continuous
 62
     1
370
    25
100
AcDbPolyline
 90
       21
 70
   128
 43
0.0
 10
690.2963401621
 20
-687.2360136042
 10
690.0227034969
 20
-687.0908189248
 10
688.8246281703
 20
-686.7056371345
 10
687.4894086637
 20
-686.6420288511
 10
686.0534662843
 20
-686.901729143
 10
684.5559697972
 20
-687.4776540629
 10
683.0377670028
 20
-688.3540938806
 10
681.5402705157
 20
-689.5071416024
 10
680.1043281363
 20
-690.9053450923
 10
678.7691086296
 20
-692.510565004
 10
677.5710333031
 20
-694.2790151226
 10
676.5427825284
 20
-696.1624567391
 10
675.7124043064
 20
-698.1095144758
 10
675.1025491902
 20
-700.0670776733
 10
674.7298524376
 20
-701.9817491106
 10
674.6044802446
 20
-703.801301542
 10
674.7298524376
 20
-705.4761023205
 10
675.1025491902
 20
-706.9604672466
 10
675.7124043064
 20
-708.2139067147
 10
676.5427825284
 20
-709.2022301634
 10
677.3488193796
 20
-709.7825037537
  0
LWPOLYLINE
  5
202
330
1F
100
AcDbEntity
  8
0
  6
Continuous
 62
     1
370
    25
100
AcDbPolyline
 90
       21
 70
   128
 43
0.0
 10
858.51632189
 20
-299.402691221
 10
858.2426852248
 20
-299.2574965416
 10
857.0446098982
 20
-298.8723147513
 10
855.7093903915
 20
-298.8087064679
 10
854.2734480122
 20
-299.0684067597
 10
852.7759515251
 20
-299.6443316797
 10
851.2577487307
 20
-300.5207714974
 10
849.7602522435
 20
-301.6738192192
 10
848.3243098642
 20
-303.0720227091
 10
846.9890903575
 20
-304.6772426208
 10
845.791015031
 20
-306.4456927394
 10
844.7627642563
 20
-308.3291343559
 10
843.9323860343
 20
-310.2761920926
 10
843.3225309181
 20
-312.2337552901
 10
842.9498341655
 20
-314.1484267274
 10
842.8244619724
 20
-315.9679791588
 10
842.9498341655
 20
-317.6427799373
 10
843.3225309181
 20
-319.1271448634
 10
843.9323860343
 20
-320.3805843314
 10
844.7627642563
 20
-321.3689077802
 10
845.5688011075
 20
-321.9491813705
  0
LWPOLYLINE
  5
203
330
1F
100
AcDbEntity
  8
0
  6
Continuous
 62
     1
370
    25
100
AcDbPolyline
 90
       21
 70
   128
 43
0.0
 10
676.4363257344
 20
-614.7744946788
 10
676.1626890692
 20
-614.6292999994
 10
674.9646137426
 20
-614.2441182091
 10
673.629394236
 20
-614.1805099257
 10
672.1934518566
 20
-614.4402102175
 10
670.6959553695
 20
-615.0161351375
 10
669.1777525751
 20
-615.8925749552
 10
667.680256088
 20
-617.045622677
 10
666.2443137086
 20
-618.4438261669
 10
664.9090942019
 20
-620.0490460785
 10
663.7110188754
 20
-621.8174961972
 10
662.6827681007
 20
-623.7009378137
 10
661.8523898787
 20
-625.6479955504
 10
661.2425347625
 20
-627.6055587479
 10
660.8698380099
 20
-629.5202301852
 10
660.7444658169
 20
-631.3397826166
 10
660.8698380099
 20
-633.0145833951
 10
661.2425347625
 20
-634.4989483212
 10
661.8523898787
 20
-635.7523877892
 10
662.6827681007
 20
-636.740711238
 10
663.4888049519
 20
-637.3209848282
  0
LWPOLYLINE
  5
204
330
1F
100
AcDbEntity
  8
0
  6
Continuous
 62
     1
370
    25
100
AcDbPolyline
 90
       21
 70
   128
 43
0.0
 10
788.8373239962
 20
-355.6325535891
 10
788.5636873309
 20
-355.4873589097
 10
787.3656120044
 20
-355.1021771193
 10
786.0303924977
 20
-355.038568836
 10
784.5944501184
 20
-355.2982691278
 10
783.0969536312
 20
-355.8741940478
 10
781.5787508368
 20
-356.7506338655
 10
780.0812543497
 20
-357.9036815873
 10
778.6453119704
 20
-359.3018850772
 10
777.3100924637
 20
-360.9071049888
 10
776.1120171371
 20
-362.6755551075
 10
775.0837663625
 20
-364.5589967239
 10
774.2533881404
 20
-366.5060544606
 10
773.6435330242
 20
-368.4636176582
 10
773.2708362717
 20
-370.3782890955
 10
773.1454640786
 20
-372.1978415269
 10
773.2708362717
 20
-373.8726423053
 10
773.6435330242
 20
-375.3570072315
 10
774.2533881404
 20
-376.6104466995
 10
775.0837663625
 20
-377.5987701483
 10
775.8898032137
 20
-378.1790437385
  0
LWPOLYLINE
  5
205
330
1F
100
AcDbEntity
  8
0
  6
Continuous
 62
     1
370
    25
100
AcDbPolyline
 90
       21
 70
   128
 43
0.0
 10
690.2963401621
 20
-526.3105437165
 10
690.0227034969
 20
-526.1653490371
 10
688.8246281704
 20
-525.7801672468
 10
687.4894086637
 20
-525.7165589634
 10
686.0534662843
 20
-525.9762592552
 10
684.5559697972
 20
-526.5521841752
 10
683.0377670028
 20
-527.4286239929
 10
681.5402705157
 20
-528.5816717147
 10
680.1043281363
 20
-529.9798752046
 10
678.7691086296
 20
-531.5850951162
 10
677.5710333031
 20
-533.3535452349
 10
676.5427825285
 20
-535.2369868514
 10
675.7124043064
 20
-537.1840445881
 10
675.1025491902
 20
-539.1416077856
 10
674.7298524376
 20
-541.0562792229
 10
674.6044802446
 20
-542.8758316543
 10
674.7298524376
 20
-544.5506324328
 10
675.1025491902
 20
-546.0349973589
 10
675.7124043064
 20
-547.2884368269
 10
676.5427825285
 20
-548.2767602757
 10
677.3488193796
 20
-548.8570338659
  0
LWPOLYLINE
  5
206
330
1F
100
AcDbEntity
  8
0
  6
Continuous
 62
     1
370
    25
100
AcDbPolyline
 90
       21
 70
   128
 43
0.0
 10
729.76632189
 20
-435.3119953236
 10
729.4926852247
 20
-435.1668006442
 10
728.2946098982
 20
-434.7816188539
 10
726.9593903915
 20
-434.7180105705
 10
725.5234480122
 20
-434.9777108624
 10
724.025951525
 20
-435.5536357823
 10
722.5077487306
 20
-436.4300756
 10
721.0102522435
 20
-437.5831233218
 10
719.5743098642
 20
-438.9813268117
 10
718.2390903575
 20
-440.5865467234
 10
717.0410150309
 20
-442.354996842
 10
716.0127642563
 20
-444.2384384585
 10
715.1823860342
 20
-446.1854961952
 10
714.572530918
 20
-448.1430593927
 10
714.1998341655
 20
-450.05773083
 10
714.0744619724
 20
-451.8772832614
 10
714.1998341655
 20
-453.5520840399
 10
714.572530918
 20
-455.036448966
 10
715.1823860342
 20
-456.2898884341
 10
716.0127642563
 20
-457.2782118828
 10
716.8188011075
 20
-457.8584854731
  0
ENDSEC
  0
SECTION
  2
OBJECTS
  0
DICTIONARY
  5
C
330
0
100
AcDbDictionary
281
     1
  3
ACAD_GROUP
350
D
  3
ACAD_LAYOUT
350
1A
  3
ACAD_MLINESTYLE
350
17
  3
ACAD_PLOTSETTINGS
350
19
  3
ACAD_PLOTSTYLENAME
350
E
  3
ACAD_SCALELIST
350
47
  3
DWGPROPS
350
207
  0
DICTIONARY
  5
D
102
{ACAD_REACTORS
330
C
102
}
330
C
100
AcDbDictionary
281
     1
  0
DICTIONARY
  5
1A
102
{ACAD_REACTORS
330
C
102
}
330
C
100
AcDbDictionary
281
     1
  3
Layout1
350
1E
  3
Layout2
350
26
  3
Model
350
22
  0
DICTIONARY
  5
17
102
{ACAD_REACTORS
330
C
102
}
330
C
100
AcDbDictionary
281
     1
  3
Standard
350
18
  0
DICTIONARY
  5
19
102
{ACAD_REACTORS
330
C
102
}
330
C
100
AcDbDictionary
281
     1
  0
ACDBDICTIONARYWDFLT
  5
E
102
{ACAD_REACTORS
330
C
102
}
330
C
100
AcDbDictionary
281
     1
  3
Normal
350
F
100
AcDbDictionaryWithDefault
340
F
  0
DICTIONARY
  5
47
102
{ACAD_REACTORS
330
C
102
}
330
C
100
AcDbDictionary
281
     1
  3
A0
350
48
  3
A1
350
49
  3
A2
350
4A
  3
A3
350
4B
  3
A4
350
4C
  3
A5
350
4D
  3
A6
350
4E
  3
A7
350
4F
  3
A8
350
50
  3
A9
350
51
  3
B0
350
52
  3
B1
350
53
  3
B2
350
54
  3
B3
350
55
  3
B4
350
56
  3
B5
350
57
  3
B6
350
58
  3
B7
350
59
  3
B8
350
5A
  3
B9
350
5B
  3
C0
350
5C
  3
C1
350
5D
  3
C2
350
5E
  3
C3
350
5F
  3
C4
350
60
  3
C5
350
61
  3
C6
350
62
  3
C7
350
63
  3
C8
350
64
  3
C9
350
65
  3
D0
350
66
  3
D1
350
67
  3
D2
350
68
  0
XRECORD
  5
207
102
{ACAD_REACTORS
330
C
102
}
330
C
100
AcDbXrecord
280
     1
  1
DWGPROPS COOKIE
  2

  3

  4

  6

  7

  8
b.kav
  9

300
=
301
=
302
=
303
=
304
=
305
=
306
=
307
=
308
=
309
=
 40
0.0
 41
2459741.466064456
 42
2459741.466067141
  1

 90
        0
  0
LAYOUT
  5
1E
102
{ACAD_REACTORS
330
1A
102
}
330
1A
100
AcDbPlotSettings
  1

  2
none_device
  4

  6

 40
0.0
 41
0.0
 42
0.0
 43
0.0
 44
0.0
 45
0.0
 46
0.0
 47
0.0
 48
0.0
 49
0.0
140
0.0
141
0.0
142
1.0
143
1.0
 70
   688
 72
     1
 73
     0
 74
     5
  7

 75
    16
147
1.0
148
0.0
149
0.0
100
AcDbLayout
  1
Layout1
 70
     1
 71
     1
 10
0.0
 20
0.0
 11
420.0
 21
297.0
 12
0.0
 22
0.0
 32
0.0
 14
1.0000000000E+20
 24
1.0000000000E+20
 34
1.0000000000E+20
 15
-1.0000000000E+20
 25
-1.0000000000E+20
 35
-1.0000000000E+20
146
0.0
 13
0.0
 23
0.0
 33
0.0
 16
1.0
 26
0.0
 36
0.0
 17
0.0
 27
1.0
 37
0.0
 76
     0
330
1B
  0
LAYOUT
  5
26
102
{ACAD_REACTORS
330
1A
102
}
330
1A
100
AcDbPlotSettings
  1

  2
none_device
  4

  6

 40
0.0
 41
0.0
 42
0.0
 43
0.0
 44
0.0
 45
0.0
 46
0.0
 47
0.0
 48
0.0
 49
0.0
140
0.0
141
0.0
142
1.0
143
1.0
 70
   688
 72
     1
 73
     0
 74
     5
  7

 75
    16
147
1.0
148
0.0
149
0.0
100
AcDbLayout
  1
Layout2
 70
     1
 71
     2
 10
0.0
 20
0.0
 11
0.0
 21
0.0
 12
0.0
 22
0.0
 32
0.0
 14
0.0
 24
0.0
 34
0.0
 15
0.0
 25
0.0
 35
0.0
146
0.0
 13
0.0
 23
0.0
 33
0.0
 16
1.0
 26
0.0
 36
0.0
 17
0.0
 27
1.0
 37
0.0
 76
     0
330
23
  0
LAYOUT
  5
22
102
{ACAD_REACTORS
330
1A
102
}
330
1A
100
AcDbPlotSettings
  1

  2
none_device
  4
Letter_(8.50_x_11.00_Inches)
  6

 40
6.35
 41
6.35
 42
6.35000508
 43
6.35000508
 44
215.9
 45
279.4
 46
0.0
 47
0.0
 48
0.0
 49
0.0
140
0.0
141
0.0
142
1.0
143
1.0
 70
  1712
 72
     1
 73
     0
 74
     0
  7

 75
     0
147
1.0
148
0.0
149
0.0
100
AcDbLayout
  1
Model
 70
     1
 71
     0
 10
0.0
 20
0.0
 11
279.4
 21
215.9
 12
0.0
 22
0.0
 32
0.0
 14
0.0
 24
0.0
 34
0.0
 15
279.4
 25
215.9
 35
0.0
146
0.0
 13
0.0
 23
0.0
 33
0.0
 16
1.0
 26
0.0
 36
0.0
 17
0.0
 27
1.0
 37
0.0
 76
     0
330
1F
331
29
  0
MLINESTYLE
  5
18
102
{ACAD_REACTORS
330
17
102
}
330
17
100
AcDbMlineStyle
  2
Standard
 70
     0
  3

 62
   256
 51
90.0
 52
90.0
 71
     2
 49
0.5
 62
   256
  6
BYLAYER
 49
-0.5
 62
   256
  6
BYLAYER
  0
ACDBPLACEHOLDER
  5
F
102
{ACAD_REACTORS
330
E
102
}
330
E
  0
SCALE
  5
48
102
{ACAD_REACTORS
330
47
102
}
330
47
100
AcDbScale
 70
     0
300
1:1
140
1.0
141
1.0
290
     1
  0
SCALE
  5
49
102
{ACAD_REACTORS
330
47
102
}
330
47
100
AcDbScale
 70
     0
300
1:2
140
1.0
141
2.0
290
     0
  0
SCALE
  5
4A
102
{ACAD_REACTORS
330
47
102
}
330
47
100
AcDbScale
 70
     0
300
1:4
140
1.0
141
4.0
290
     0
  0
SCALE
  5
4B
102
{ACAD_REACTORS
330
47
102
}
330
47
100
AcDbScale
 70
     0
300
1:5
140
1.0
141
5.0
290
     0
  0
SCALE
  5
4C
102
{ACAD_REACTORS
330
47
102
}
330
47
100
AcDbScale
 70
     0
300
1:8
140
1.0
141
8.0
290
     0
  0
SCALE
  5
4D
102
{ACAD_REACTORS
330
47
102
}
330
47
100
AcDbScale
 70
     0
300
1:10
140
1.0
141
10.0
290
     0
  0
SCALE
  5
4E
102
{ACAD_REACTORS
330
47
102
}
330
47
100
AcDbScale
 70
     0
300
1:16
140
1.0
141
16.0
290
     0
  0
SCALE
  5
4F
102
{ACAD_REACTORS
330
47
102
}
330
47
100
AcDbScale
 70
     0
300
1:20
140
1.0
141
20.0
290
     0
  0
SCALE
  5
50
102
{ACAD_REACTORS
330
47
102
}
330
47
100
AcDbScale
 70
     0
300
1:30
140
1.0
141
30.0
290
     0
  0
SCALE
  5
51
102
{ACAD_REACTORS
330
47
102
}
330
47
100
AcDbScale
 70
     0
300
1:40
140
1.0
141
40.0
290
     0
  0
SCALE
  5
52
102
{ACAD_REACTORS
330
47
102
}
330
47
100
AcDbScale
 70
     0
300
1:50
140
1.0
141
50.0
290
     0
  0
SCALE
  5
53
102
{ACAD_REACTORS
330
47
102
}
330
47
100
AcDbScale
 70
     0
300
1:100
140
1.0
141
100.0
290
     0
  0
SCALE
  5
54
102
{ACAD_REACTORS
330
47
102
}
330
47
100
AcDbScale
 70
     0
300
2:1
140
2.0
141
1.0
290
     0
  0
SCALE
  5
55
102
{ACAD_REACTORS
330
47
102
}
330
47
100
AcDbScale
 70
     0
300
4:1
140
4.0
141
1.0
290
     0
  0
SCALE
  5
56
102
{ACAD_REACTORS
330
47
102
}
330
47
100
AcDbScale
 70
     0
300
8:1
140
8.0
141
1.0
290
     0
  0
SCALE
  5
57
102
{ACAD_REACTORS
330
47
102
}
330
47
100
AcDbScale
 70
     0
300
10:1
140
10.0
141
1.0
290
     0
  0
SCALE
  5
58
102
{ACAD_REACTORS
330
47
102
}
330
47
100
AcDbScale
 70
     0
300
100:1
140
100.0
141
1.0
290
     0
  0
SCALE
  5
59
102
{ACAD_REACTORS
330
47
102
}
330
47
100
AcDbScale
 70
     0
300
1/128" = 1'-0"
140
0.0078125
141
12.0
290
     0
  0
SCALE
  5
5A
102
{ACAD_REACTORS
330
47
102
}
330
47
100
AcDbScale
 70
     0
300
1/64" = 1'-0"
140
0.015625
141
12.0
290
     0
  0
SCALE
  5
5B
102
{ACAD_REACTORS
330
47
102
}
330
47
100
AcDbScale
 70
     0
300
1/32" = 1'-0"
140
0.03125
141
12.0
290
     0
  0
SCALE
  5
5C
102
{ACAD_REACTORS
330
47
102
}
330
47
100
AcDbScale
 70
     0
300
1/16" = 1'-0"
140
0.0625
141
12.0
290
     0
  0
SCALE
  5
5D
102
{ACAD_REACTORS
330
47
102
}
330
47
100
AcDbScale
 70
     0
300
3/32" = 1'-0"
140
0.09375
141
12.0
290
     0
  0
SCALE
  5
5E
102
{ACAD_REACTORS
330
47
102
}
330
47
100
AcDbScale
 70
     0
300
1/8" = 1'-0"
140
0.125
141
12.0
290
     0
  0
SCALE
  5
5F
102
{ACAD_REACTORS
330
47
102
}
330
47
100
AcDbScale
 70
     0
300
3/16" = 1'-0"
140
0.1875
141
12.0
290
     0
  0
SCALE
  5
60
102
{ACAD_REACTORS
330
47
102
}
330
47
100
AcDbScale
 70
     0
300
1/4" = 1'-0"
140
0.25
141
12.0
290
     0
  0
SCALE
  5
61
102
{ACAD_REACTORS
330
47
102
}
330
47
100
AcDbScale
 70
     0
300
3/8" = 1'-0"
140
0.375
141
12.0
290
     0
  0
SCALE
  5
62
102
{ACAD_REACTORS
330
47
102
}
330
47
100
AcDbScale
 70
     0
300
1/2" = 1'-0"
140
0.5
141
12.0
290
     0
  0
SCALE
  5
63
102
{ACAD_REACTORS
330
47
102
}
330
47
100
AcDbScale
 70
     0
300
3/4" = 1'-0"
140
0.75
141
12.0
290
     0
  0
SCALE
  5
64
102
{ACAD_REACTORS
330
47
102
}
330
47
100
AcDbScale
 70
     0
300
1" = 1'-0"
140
1.0
141
12.0
290
     0
  0
SCALE
  5
65
102
{ACAD_REACTORS
330
47
102
}
330
47
100
AcDbScale
 70
     0
300
1-1/2" = 1'-0"
140
1.5
141
12.0
290
     0
  0
SCALE
  5
66
102
{ACAD_REACTORS
330
47
102
}
330
47
100
AcDbScale
 70
     0
300
3" = 1'-0"
140
3.0
141
12.0
290
     0
  0
SCALE
  5
67
102
{ACAD_REACTORS
330
47
102
}
330
47
100
AcDbScale
 70
     0
300
6" = 1'-0"
140
6.0
141
12.0
290
     0
  0
SCALE
  5
68
102
{ACAD_REACTORS
330
47
102
}
330
47
100
AcDbScale
 70
     0
300
1'-0" = 1'-0"
140
12.0
141
12.0
290
     0
  0
ENDSEC
  0
EOF
